Offspring - Huck It Chords & Tabs

 

Huck It Chords & Tabs

Offspring Chords & Tabs

Version: 1 Type: Tab 0 ratings
1 star 2 stars 3 stars 4 stars 5 stars
comments

Huck It Tab

Intro:
Play multiple times...listen to the song...you'll know howm many times.

e|--------------------|
B|-12--------13-------|
G|----12--14----------|
D|--------------------|
A|--------------------|
E|--------------------|

Play this in the background...
e|--------------------------|
B|--------------------------|
G|-9-9----9-9---------------|
D|-9-9----9-9---------------|
A|-7-7----7-7---------------|
E|--------------------------|

Fast part before verse...... *=Play 8 times

e|----------------------------------------------|
B|----------------------------------------------|
G|-9*--7*------12-12-12-12-12---14-14-14-14-14--|
D|-9*--7*--7*--12-12-12-12-12---14-14-14-14-14--|
A|-7*--5*--7*--10-10-10-10-10---12-12-12-12-12--|
E|---------5*-----------------------------------|


Verse:

e|--------------------------------------------------------|
B|--------------------------------------------------------|
G|-9--12--11-12--9---12--11-12-7--------------------------|
D|-9--12--11-12--9---12--11-12-7--5--5-5--5--5-5--5--7-7--|
A|-7--10--9--10--7---10--9--10-5--5--5-5--5--5-5--5--7-7--|
E|--------------------------------3--3-3--3--3-3--3--5-5--|
                                 {-------Palm Mute------}

e|------------------------------------------------------------|
B|------------------------------------------------------------|
G|-9--12--11-12--9--12--11-7----------------------------------|
D|-9--12--11-12--9--12--11-7----------------------------------|
A|-7--10--9--10--7--10--9--5(Play this chord a bunch of times)|
E|------------------------------------------------------------|

Chorus: Repeat Two Times

e|----------------------------------
B|----------------------------------------------
G|--------------12-12--14--9-9-9-9-9-9--12---------
D|-10-10-10-10--12-12--14--9-9-9-9-9-9--12---------
A|-10-10-10-10--10-10--12--7-7-7-7-7-7--10----------
E|-8--8--8--8-------------------------------------

End Chorus:
[ Tab from: http://www.guitartabs.cc/tabs/o/offspring/huck_it_tab.html ]
e|-----------------------------------------|
B|-----------------------------------------|
G|-9-9-9-9-9-9--12--9-9-9-9-9-9--12--9--7--|
D|-9-9-9-9-9-9--12--9-9-9-9-9-9--12--9--7--|
A|-7-7-7-7-7-7--10--7-7-7-7-7-7--10--7--5--|
E|-----------------------------------------|


After chorus, repeat FIRST part of the verse twice then this...

Verse 2: Twice

e|----------------------------------------------|
B|----------------------------------------------|
G|--------------------7-------------------------|
D|----5-4-5----5-4-5--7-5--5-5--5--5-5--5--7-7--|
A|-2--5-4-5-2--5-4-5--5-5--5-5--5--5-5--5--7-7--|
E|-0--3-2-3-0--3-2-3----3--3-3--3--3-3--3--5-5--|
                       {------Palm Mute-------}

e|-------------------------------------------------------|
B|-------------------------------------------------------|
G|-------------------7-----------------------------------|
D|---5-4-5----5-4-5--7-----------------------------------|
A|2--5-4-5-2--5-4-5--5(Play this chord a bunch of times)-|
E|0--3-2-3-0--3-2-3--------------------------------------|

After this play the chorus twice.  
Then play the very first part of the intro, the little riff. 
Then Play this.....

e|--------------------------------------------|
B|--------------------------------------------|
G|------------------5--------------------------|
D|----5-4-5----5-4--5--5--5-5--5--5-5--5--7-7--|
A|-2--5-4-5-2--5-4--3--5--5-5--5--5-5--5--7-7--|
E|-0--3-2-3-0--3-2-----3--3-3--3--3-3--3--5-5--|

e|------------------------------------------------------|
B|------------------------------------------------------|
G|------------------7-----------------------------------|
D|----5-4-5----5-4--7-----------------------------------|
A|-2--5-4-5-2--5-4--5(Play this chord a bunch of times)-|
E|-0--3-2-3-0--3-2--------------------------------------|					

Then play the chorus twice and end on this note...

G|-9------------------|
D|-9------------------|
A|-7(Slide down fast)-|
E|--------------------|


Comments