Offspring - Huck It Chords & Tabs

 

Huck It Chords & Tabs

Offspring Chords & Tabs

Version: 1 Type: Bass Tab 0 ratings
1 star 2 stars 3 stars 4 stars 5 stars
comments

Huck It Bass Tab

Tablatura de NICO M. (nicokbbl@hotmail.com)

Artista: The Offspring
Cancion: Huck It
Album: Conspiracy Of One (2000) 



1|---------------------------------------------------------------|
2|---------------------------------------------------------------|x2
3|-7-7-7-7-7-7-5-5-5-5-5-5-------------10-10-10-10-12-12-12-12---|
4|-------------------------5-5-5-5-5-5---------------------------|




1|---------------------------------------------------------------|
2|---------------------------------------------------------------|
3|-7~--10--9-10-7--10--9-5~--------------------------------------|
4|--------------------------3-3-3-3-3-3-5-5-5-5-5-5--------------|


   Hitting walls for a feet
   With our friends and we hear this free



1|---------------------------------------------------------------|
2|---------------------------------------------------------------|
3|-7~--10--9-10-7--10--9-10-5-5-5-5-5-5-5-5----------------------|
4|---------------------------------------------------------------|


   All the dogs, dropping bombs
   He see


1|----------------------------------------------------------------|
2|----------------------------------------------------------------|
3|-------------10-10-12-12----------------10-10-10-10-------------|
4|--8--8--8--8-------------12-12-12-12-12--------------8--8--8--8-|


   HUCK IT
   You don't have the ties
   You won't have the eyes


1|------------------------------------------------------------------------|
2|------------------------------------------------------------------------|
3|-10-10-12-12----------------10-10-10-10----------------10-10-10-10------|
4|-------------12-12-12-12-12-------------12-12-12-12-12-------------12-10|


   HUCK IT
   Cause you realize
   You don't need to justify
   That cable show is not the lives we know


1|---------------------------------------------------------------|
2|---------------------------------------------------------------|
3|---------------------------------------------------------------|
4|-0~--3-2-3-0--3-2-3-------3-3-3-3-3-3-5-5-5-5-5-5--------------|


   Drop a bomb in the publics eye
   Fuck the Spartans they always lie

1|---------------------------------------------------------------|
2|---------------------------------------------------------------|
3|---------------------------------------------------------------|
4|-0~--3-2-3-0--3-2-3-------3-3-3-3-3-3-5-5-5-5-5-5--------------|

  
   You are pointing to go fast and GO


1|---------------------------------------------------------------|
2|---------------------------------------------------------------|
3|---------------------------------------------------------------|
4|-0~--3-2-3-0--3-2-3-------3-3-3-3-3-3-5-5-5-5-5-5--------------|


  Broken bombs and baking skin
  Notify your next of kin



1|---------------------------------------------------------------|
2|---------------------------------------------------------------|
3|---------------------------------------------------------------|
4|-0~--3-2-3-0--3-2-3-------3-3-3-3-3-3-5-5-5-5-5-5--------------|

[ Tab from: http://www.guitartabs.cc/tabs/o/offspring/huck_it_btab.html ]
   You'll know you'll come alive some day 


1|----------------------------------------------------------------|
2|----------------------------------------------------------------|
3|-------------10-10-12-12----------------10-10-10-10-------------|
4|--8--8--8--8-------------12-12-12-12-12--------------8--8--8--8-|


   HUCK IT
   Now you feel alive,
   stinks like shit all the time


1|------------------------------------------------------------------------|
2|------------------------------------------------------------------------|
3|-10-10-12-12----------------10-10-10-10----------------10-10-10-10------|
4|-------------12-12-12-12-12-------------12-12-12-12-12-------------12-10|

   HUCK IT
   Its like you gotta try
   risky shit, by the time



   You can not practice lay it on the line


1|----------------------------------------------------------------|
2|----------------------------------------------------------------|
3|-------------10-10-12-12----------------10-10-10-10-------------|
4|--8--8--8--8-------------12-12-12-12-12--------------8--8--8--8-|


   HUCK IT
   Now you're down in luck
   cause you dont give a fuck 


1|------------------------------------------------------------------------|
2|------------------------------------------------------------------------|
3|-10-10-12-12----------------10-10-10-10----------------10-10-10-10------|
4|-------------12-12-12-12-12-------------12-12-12-12-12-------------12-10|


   HUCK IT
   And go by the time
   You go out doin what you know
   no talking shit just leave it all and go home


1|----------------------------------------------------------------|
2|----------------------------------------------------------------|
3|-------------10-10-12-12----------------10-10-10-10-------------|
4|--8--8--8--8-------------12-12-12-12-12--------------8--8--8--8-|


   HUCK IT
   Now youll feel alive
   stinks like shit all the time


1|------------------------------------------------------------------------|
2|------------------------------------------------------------------------|
3|-10-10-12-12----------------10-10-10-10----------------10-10-10-10------|
4|-------------12-12-12-12-12-------------12-12-12-12-12-------------12-10|


   HUCK IT
   Like you gotta try
   risky shit by the time
   cant practice just lay it on the line


1|----------------------------------------------------------------|
2|----------------------------------------------------------------|
3|-------------10-10-12-12----------------10-10-10-10-------------|
4|--8--8--8--8-------------12-12-12-12-12--------------8--8--8--8-|


   HUCK IT
   Now you're down in luck
   cause you dont give a fuck


1|------------------------------------------------------------------------|
2|------------------------------------------------------------------------|
3|-10-10-12-12----------------10-10-10-10----------------10-10-10-10------|
4|-------------12-12-12-12-12-------------12-12-12-12-12-------------12-10|


   HUCK IT
   And go by the time
   You go out doin what you know
   no talking shit just leave it all and go home
Comments