Offspring - Hit That Chords & Tabs

 

Hit That Chords & Tabs

Offspring Chords & Tabs

Version: 4 Type: Tab 0 ratings
1 star 2 stars 3 stars 4 stars 5 stars
comments

Hit That Tab

The Offspring - Hit That (by Mr.Lavon)

Standart tuning

Opening (and main riff):

E|------------------------------------------------------------|
B|------------------------------------------------------------|
G|------------------------------------------------------------|
D|-5-----7----\2--2--2--------2--------2--------2--------2----|
A|-5-----7----\2--2--2--------2--------2--------2--------2----|
E|-3-----5----\0--0--0--------0--------0--------0--------0----|


Pre-Chorus:

E|------------------|
B|------------------|
G|------------------|
D|--5------5/7--7---|
A|--5------5/7--7---|
E|--3------3/5--5---|

Chorus:

E|--------------------------------------------------------------|
B|--------------------------------------------------------------|
G|--------------------------------------------------------------|
D|--2-2-2-2-9-2---2-2-2-2-2-9-2---2-5-5-5-5\4/5---5-7-7-7-7\5/7-|
A|--2-2-2-2-7-2---2-2-2-2-2-7-2---2-5-5-5-5\4/5---5-7-7-7-7\5/7-|
E|--0-0-0-0---0---0-0-0-0-0---0---0-3-3-3-3\2/3---3-5-5-5-5\3/5-|x2
[ Tab from: http://www.guitartabs.cc/tabs/o/offspring/hit_that_tab_ver_4.html ]
E|------------------------------------------------------------------|
B|------------------------------------------------------------------|
G|----------------------------------5-5-5-5-5-5-5-5-----------------|
D|--2-2-2-2-9-2---2-2-2-2-2-9-2---2-5-5-5-5-5-5-5-5-7-7-7-7-7-7-7-7-|
A|--2-2-2-2-7-2---2-2-2-2-2-7-2---2-3-3-3-3-3-3-3-3-7-7-7-7-7-7-7-7-|
E|--0-0-0-0---0---0-0-0-0-0---0---0-----------------5-5-5-5-5-5-5-5-|

E|-----------------------------------------------------------|
B|-----------------------------------------------------------|
G|-----------------4-4-4-4-4-4-4-4---------------------------|
D|-2-2-2-2-2-2-2-2-4-4-4-4-4-4-4-4-5------7-------\2---2---2-|
A|-2-2-2-2-2-2-2-2-2-2-2-2-2-2-2-2-5------7-------\2---2---2-|
E|-0-0-0-0-0-0-0-0-----------------3------5-------\0---0---0-|

Bridge part:

E|-----------------------------------------------------------------|
B|-----------------------------------------------------------------|
G|-----------------------------------------------------------------|
D|---------9---9----------------9---9---------------------9---9----|
A|---------7---7----------------7---7---------------------7---7----|
E|-----------------------------------------------------------------|

  well it wind up...       but why not...       and it don't stop...

Well, that's it. Enjoy!
Comments