Offspring - Hit That Chords & Tabs

 

Hit That Chords & Tabs

Offspring Chords & Tabs

Version: 3 Type: Bass Tab 0 ratings
1 star 2 stars 3 stars 4 stars 5 stars
comments

Hit That Bass Tab

The Offspring - Hit That - Bass Tab

If you listen to the song you should get the timing, eventually. The octaves in
the chorus have no particular timing to them, except that the first bit is 2 bars
and the second and third bits are one bar each. For the verse precise timing is
required and i would recommed going through slowly to begin with and speeding up
gradually. Before playing to the CD/Cassette/Vinyl

G|---------------------------------------|
D|--2-2--2-2--2-2--2-2--2-2--2-2---------| Repeat as necessary
A|-------------------------------2-1-0---|
E|-0----0----0----0----0----0----------3-|

G|-------------------|
D|--2--2--2--2--2--2-|
A|-------------------|
E|-0--0--0--0--0--0--|

G|-------------------|
D|--5--5--5--5--5--5-|
A|-------------------|
E|-3--3--3--3--3--3--|

G|-------------------|
D|--7--7--7--7--7--7-|
A|-------------------|
E|-5--5--5--5--5--5--|

G|-------------------|
D|--2--2--2--2--2--2-|
A|-------------------|
E|-0--0--0--0--0--0--|
[ Tab from: http://www.guitartabs.cc/tabs/o/offspring/hit_that_btab_ver_3.html ]
G|-------------------|
D|--5--5--5--5--5--5-|
A|-------------------|
E|-3--3--3--3--3--3--|

G|-------------------|
D|--7--7--7--7--7--7-|
A|-------------------|
E|-5--5--5--5--5--5--|

G|-------------------|
D|--2--2--2--2--2--2-|
A|-------------------|
E|-0--0--0--0--0--0--|

G|--5--5--5--5--5--5-|
D|-------------------|
A|-3--3--3--3--3--3--|
E|-------------------|

G|--2--2--2--2--2--2-|
D|-------------------|
A|-0--0--0--0--0--0--|
E|-------------------|

G|-------------------|
D|--2--2--2--2--2--2-|
A|-------------------|
E|-0--0--0--0--0--0--|

G|--4--4--4--4--4--4-|
D|-------------------|
A|-2--2--2--2--2--2--|
E|-------------------|

G|-------------------|
D|--5--5--5--5--5--5-|
A|-------------------|
E|-3--3--3--3--3--3--|

G|--2--2--2--2--2--2-|
D|-------------------|
A|-0--0--0--0--0--0--|
E|-------------------|

That's basically it, you will have to repeat a few times and there are a few
pauses and breaks here and there but it's 22:15 and i can't be bothered!
Comments