Offspring - Hit That Chords & Tabs

 

Hit That Chords & Tabs

Offspring Chords & Tabs

Version: 1 Type: Bass Tab 0 ratings
1 star 2 stars 3 stars 4 stars 5 stars
comments

Hit That Bass Tab

   
#----------------------------------PLEASE NOTE---------------------------------#
#This file is the author's own work and represents their interpretation of the #
#song. You may only use this file for private study, scholarship, or research. #
#------------------------------------------------------------------------------#

Title: Hit that
Artist: The offspring
Album: splinter
tabbed by: suzy

Intro
G|----------------|
D|----------------|
A|----------------|
E|--3--5--0-0-0---|

Verse
G|----------|                    G|---------|
D|----------.  Repeat this 6X    D|---------| And then play the two
A|----------.  then follow with  A|---------| together as many times
E|--0-10/12-|                    E|-7-6-5-3-| as u have to

As the song is advancing into the chorus, the guitar will be
playing something else and it'll sound like you'll have to change
but don't, resist it!
[ Tab from: http://www.guitartabs.cc/tabs/o/offspring/hit_that_btab.html ]
Jumps into this...
Chorus
G|--------------------------------------------------|
D|---2--2--2--2--2--2--2--2--5--5--5--5--7--7--7--7-| Use the slap and pop position,
A|--------------------------------------------------| but don't actually do it, just 
E|--0--0--0--0--0--0--0--0--3--3--3--3--5--5--5--5--| play with ur thumb and index

the chorus sounds a bit cleaner when u play this instead if you have
a five-string
G|--------------------------------------------------|
D|---------------------------5--5--5--5--7--7--7--7-|
A|---7--7--7--7--7--7--7--7-------------------------|
E|--------------------------3--3--3--3--5--5--5--5--|
B|--5--5--5--5--5--5--5--5--------------------------|

Bridge
G|--------------------------------------------------|
D|---2--2--2--2--2--2--2--2--10-10-10-10-7--7--7--7-|  Same thing bout the
A|--------------------------------------------------|  thumb and index goes 
E|--0--0--0--0--0--0--0--0--8--8--8--8--5--5--5--5--|  here and the thing 
                                                       bout the 5-string 
G|---------------------------------------------------|
D|---2--2--2--2--2--2--2--2--9--9--9--9--------------|
A|---------------------------------------------------|
E|--0--0--0--0--0--0--0--0--7--7--7--7--3---5--0-0-0-|

And thats the whole song, not very complicated but sounds very neat
when u get everything together
If u have any questions or comments email me at suzy_babe_89@hotmail.com

suzy:) 
Comments