Offspring - Hey Joe Chords & Tabs

 

Hey Joe Chords & Tabs

Offspring Chords & Tabs

Version: 4 Type: Tab 0 ratings
1 star 2 stars 3 stars 4 stars 5 stars
comments

Hey Joe Tab

#----------------------------------PLEASE NOTE--------------------------------#
#This file is the author's own work and represents their interpretation of the#
#song. You may only use this file for private study, scholarship, or research.#
#-----------------------------------------------------------------------------#
#-- File created with Instab - http://www.pconline.com/~smcarey/instab.html --#
#-----------------------------------------------------------------------------#

Author/Artist: The Offspring
Title: Hey Joe
Album: Go Ahead Punk... Make My Day (V/A)
Transcribed by: Alan
Email: bosstoner737@hotmail.com

------------------------------------------------------------------------------|
------------------------------------------------------------------------------|
-----7-----7-5-5-5-555---------7-7-777-2-2-222---------2b-2p0-----------------|
-7h9---7h9-----5-5-555-5-5-555-7-7-777-2-2-222-2-2-222--------2p0-2-2-22----0-|
---------------3-3-333-5-5-555-5-5-555-0-0-000-2-2-222------------2-2-22-0h2--|
-----------------------3-3-333-----------------0-0-000------------0-0-00------|


------------------------------------------------------------------------------|
------------------------------------------------------------------------------|
---------5-5-555---------7-7-777-2-2-222-------------------------------5-5----|
-----0---5-5-555-5-5-555-7-7-777-2-2-222-2-2-2-----5-2-2------0----0---5-5----|
-0h2-----3-3-333-5-5-555-5-5-555-0-0-000-2-2-2---5---2-2--0h2--0h2-----3-3----|
-------3---------3-3-333-----------------0-0-0-7--7--0-0-------------3--------|


------------------------------------------------------------------------------|
------------------------------------------------------------------------------|
-555---------7-7-777-2-2-222-------0h2b-2p0--------------------5-5-555--------|
-555-5-5-555-7-7-777-2-2-222-2-2-2---------2--2-2-22-----0-------5-555-5-5----|
-333-5-5-555-5-5-555-0-0-000-2-2-2------------2-2-22-0h2---0h2---3-333-5-5----|
-----3-3-333-----------------0-0-0------------0-0-00-------------------3-3----|


------------------------------------------------------------------------------|
------------------------------------------------------------------------------|
-----7-7-777-2-2-222---------0h2b-2p0----------0h2p0---------5-5---4h5p4---3--|
-555-7-7-777-2-2-222-2-2-2-22--------2-2-2-2-22-----2p0------5-5---------5----|
-555-5-5-555-0-0-000-2-2-2-22----------2-2-2-22--------2p0---3-3--------------|
-333-----------------0-0-0-00----------0-0-0-00-------------------------------|
                                                             \PM/

-------------------------------------------------------------------------------|
-------------------------------------------------------------------------------|
---3v--7-7-6h7p6---5---5v-----------2b-2-0-------------------------------------|
-5---5-7-7-------7---7---7-2-2-222---------2p0-2-2-222--2p0--------------------|
-------5-5-----------------2-2-222-------------2-2-222------2p0-0h2p0----------|
---------------------------0-0-000-------------0-0-000----------------3--------|
      \PM/                \--PM---/           \--PM----------------------------|

---------------------------------------------5h8-------------------------------|
-----------------------------------------5h8-----------------------------------|
-5-5-4h5p4---3---3v--7-7-6h7p6---5---5h7------------------2b-2-0---------------|
-5-5-------5---5---5-7-7-------7---7-------------2-2-222---------2p0-2-2-222---|
-3-3-----------------5-5-------------------------2-2-222-------------2-2-222---|
-------------------------------------------------0-0-000-------------0-0-000---|
 \PM/               \PM/                        \--PM---/           \--PM------|

------------------------------------------------------------------------------|
------------------------------------------------------------------------------|
---------------------5-5-4h5p4-----5-5--7-7--6h7p6-----7-7------12------9\7---|
-2p0-----------------5-5-------5-3-5-5--7-7--------7-5-7-7------12------9\7---|
-----2p0-0*2*0*2*0*2-3-3-----------3-3--5-5------------5-5------11------7\5---|
-----------------------------------------------------------0-00----0-00-------|
                     \PM/          \--PM---/           \
[ Tab from: http://www.guitartabs.cc/tabs/o/offspring/hey_joe_tab_ver_4.html ]
------------------------------------------------------------------------------|
------------------------------------------------------------------------------|
------12------9/7------12------9\7------12------9\7--5-5-555---------7-7-777--|
------12------9/7------12------9\7------12------9\7--5-5-555-5-5-555-7-7-777--|
------11------7/5------11------7\5------11------9\7--3-3-333-5-5-555-5-5-555--|
-0-00----0-00-----0-00----0000-----0-00----0-00--------------3-3-333----------|


----------------------------------12------------------------------------------|
----------------------------------15b-----------------------------------------|
-2-2-222--------0h2b-p0---------------5-5-555---------7-7-777-2-2-222---------|
-2-2-222-2-2-22--------2-2-2-22-------5-5-555-5-5-555-7-7-777-2-2-222-2-2-22--|
-0-0-000-2-2-22----------2-2-22-------3-3-333-5-5-555-5-5-555-0-0-000-2-2-22--|
---------0-0-00----------0-0-00---------------3-3-333-----------------0-0-00--|


---------------------------------------------------------------------8---8----|
---------------------------------------------------------------------11b-11b--|
-2b-0-----------0h2p0----------5-5-555---------7-7-777-2-2-222----------------|
------2p0-2-2-22-----2-0-------5-5-555-5-5-555-7-7-777-2-2-222-2-2-2----------|
----------2-2-22---------2-0---3-3-333-5-5-555-5-5-555-0-0-000-2-2-2----------|
----------0-0-00-------------3---------3-3-333-----------------0-0-0----------|


------------------------------------------------------------------------------|
------------------------------------------------------------------------------|
--------0h2p0-----------5-5-555---------7-7-777-2-2-222--------0h2b-0---------|
-2-2-22-------2-0-------5-5-555-5-5-555-7-7-777-2-2-222-2-2-22--------2-0-----|
-2-2-22-----------2-0---3-3-333-5-5-555-5-5-555-0-0-000-2-2-22----------------|
-0-0-00---------------3---------3-3-333-----------------0-0-00----------------|


-------/12-12-12---------------------------------------5b------7-5------------|
-------/12-12-12---------------------------------------------------8-5--------|
----------------5-5-555---------7-7-777-2-2-222-----------------------7-4-----|
-2-2-2----------5-5-555-5-5-555-7-7-777-2-2-222-2-2-22---2-2-2------------7-5-|
-2-2-2----------3-3-333-5-5-555-5-5-555-0-0-000-2-2-22---2-2-2----------------|
-0-0-0------------------3-3-333-----------------0-0-00---0-0-0----------------|


------------------------------------------------------------------------------|
------------------------------------------------------------------------------|
-5-5-555---------7-7-777------12h14p12-14b-r14-12-----------2b-r2p0-----------|
-5-5-555-5-55-5b-7-7-777-7/14---------------------14-2-2-22---------2-2-2-22--|
-3-3-333-5-55----5-5-555-----------------------------2-2-22-----------2-2-22--|
---------3-32----------------------------------------2-2-22-----------0-0-00--|


------------------------------------------------------------------------------|
------------------------------------------------------------------------------|
-0h2p0------------------------------------------------------------------------|
-------2-0--------------------------------------------------------------------|
-----------2-0----------------------------------------------------------------|
---------------3--------------------------------------------------------------|


---------7b-7b7b7b7b----------------------------------------------------------|
---------------------10-8-----------------------------------------------------|
-9v-9-7v------------------9-7-9v----------------------------------------------|
------------------------------------------------------------------------------|
------------------------------------------------------------------------------|
------------------------------------------------------------------------------|
 guitar 1

------------------------------------------------------------------------------|
------------------------------------------------------------------------------|
------------------------------------9-9---------9-9-99------------------------|
------------------------------------9-9-------7-9-9-99------------------------|
-7/---------2-3-4-5---------4-5-6-7-7-7---7-----7-7-77------------------------|
----1-2-3-4---------3-4-5-6-------------9---9---------------------------------|
 guitar 2

------------------------------------------------------------------------------|
----------------------------------------------8-8-8---------------------------|
-9--------------------------------9-9---------7-7-7---------------------------|
-9--------------------------------9-9-------7-6-6-6---------------------------|
-7---------2-3-4-5--------4-5-6-7-7-7---7-----7-7-7---------------------------|
---1-2-3-4--------3-4-5-6-------------9---9-----------------------------------|
 guitar 1 and 2
Comments