Offspring - Have You Ever Chords & Tabs

 

Have You Ever Chords & Tabs

Offspring Chords & Tabs

Version: 7 Type: Tab 0 ratings
1 star 2 stars 3 stars 4 stars 5 stars
comments

Have You Ever Tab

From: Martin Weiss and Roman Schlösser (both from Switzerland!!! jeehaa!!)
Group: Offspring
Album: Americana
Released: 1998 columbia records
Track: 2
Title: have you ever

x - scratch
pm - palm mute
/ \ - slide


intro:

|---------------------------------------------------------------------------|
|---------------------------------------------------------------------------|
|---------------------------------------------------------------------9-9-9-|
|-2-2-x-x-x-x-2-2-x-x-x-x-2-2-x-x-x-x-2-2-x-x-x-x-2-2-x-x-x-x-2-2-x-x-9-9-9-|
|-2-2-x-x-x-x-2-2-x-x-x-x-2-2-x-x-x-x-2-2-x-x-x-x-2-2-x-x-x-x-2-2-x-x-7-7-7-|
|-0-0-x-x-x-x-0-0-x-x-x-x-0-0-x-x-x-x-0-0-x-x-x-x-0-0-x-x-x-x-0-0-x-x-------|

 ---------------------|
 ---------------------|
 -9-9-9-9-9-9-9-9-9-9-|
 -9-9-9-9-9-9-9-9-9-9-|
 -7-7-7-7-7-7-7-7-7-7-|
 ---------------------|


pre verse: (0:12)
|------------------------------------------------------------------|
|------------------------------------------------------------------|
|-9-9-9-9-9-9-9-9---------7-7-7-7--9-9-9-9-9-9-9-9---------7-7-7-7-|
|-9-9-9-9-9-9-9-9-5-5-5-5-7-7-7-7--9-9-9-9-9-9-9-9-5-5-5-5-7-7-7-7-|
|-7-7-7-7-7-7-7-7-5-5-5-5-5-5-5-5--7-7-7-7-7-7-7-7-5-5-5-5-5-5-5-5-|
|-----------------3-3-3-3--------------------------3-3-3-3---------|


verse 1: (0:23)
pm_____________________|
|-------------------------------------------------------------------|
|-------------------------------------------------------------------|
|-------------------------------------------------------------------|
|-------------------------------------------------------------------|
|-7/10\9/10-7-7/10\9/10-7-7/10\9/10-7-7/10\9/10-5-5/9\7/9-5-5/9\7/9-|
|-------------------------------------------------------------------|

 ----------|
 ----------|
 ----------|
 -5/7-10-9-|  2x
 -5/7-10-9-|
 -3/5--8-7-|


chorus: (0:45)

|-----------------------------------------------------------------|
|-----------------------------------------------------------------|
|-9-9-9-9-9-9-9-9-5-5-5-5-5-5-5-5-----------------7-7-7-7-7-7-7-7-|  4x
|-9-9-9-9-9-9-9-9-5-5-5-5-5-5-5-5-5-5-5-5-5-5-5-5-7-7-7-7-7-7-7-7-|
|-7-7-7-7-7-7-7-7-3-3-3-3-3-3-3-3-5-5-5-5-5-5-5-5-5-5-5-5-5-5-5-5-|
|---------------------------------3-3-3-3-3-3-3-3-----------------|


verse 2: (1:07)
pm_____________________|
|-------------------------------------------------------------------|
|-------------------------------------------------------------------|
|-------------------------------------------------------------------|
|-------------------------------------------------------------------|
|-7/10\9/10-7-7/10\9/10-7-7/10\9/10-7-7/10\9/10-5-5/9\7/9-5-5/9\7/9-|
|-------------------------------------------------------------------|

 ----------|
 ----------|
 ----------|
 -5/7-10-9-|  2x
 -5/7-10-9-|
 -3/5--8-7-|


chorus: (1:28)
[ Tab from: http://www.guitartabs.cc/tabs/o/offspring/have_you_ever_tab_ver_7.html ]
|-----------------------------------------------------------------|
|-----------------------------------------------------------------|
|-9-9-9-9-9-9-9-9-5-5-5-5-5-5-5-5-----------------7-7-7-7-7-7-7-7-|  4x
|-9-9-9-9-9-9-9-9-5-5-5-5-5-5-5-5-5-5-5-5-5-5-5-5-7-7-7-7-7-7-7-7-|
|-7-7-7-7-7-7-7-7-3-3-3-3-3-3-3-3-5-5-5-5-5-5-5-5-5-5-5-5-5-5-5-5-|
|---------------------------------3-3-3-3-3-3-3-3-----------------|


post chorus: (1:51)

|-------------------------------------------------------------------|
|-------------------------------------------------------------------|
|-(9-9-9-9-9-9-9-9-9-9-9-9-9-9-9-9-9-9-9-9-9-9-9-9-9-9-9-9-9-9-9)-9-|
|-----------------------------------------------------------------9-|
|--7-7-7-7-7-7-7-7-7-7-7-7-7-7-7-7-7-7-7-7-7-7-7-7-7-7-7-7-7-7-7--7-|
|-------------------------------------------------------------------|


Interlude: (2:33)

|---------------------------------------------------------------------------|
|---------------------------------------------------------------------------|
|---------------------------------------------------------------------9-9-9-|
|-2-2-x-x-x-x-2-2-x-x-x-x-2-2-x-x-x-x-2-2-x-x-x-x-2-2-x-x-x-x-2-2-x-x-9-9-9-|
|-2-2-x-x-x-x-2-2-x-x-x-x-2-2-x-x-x-x-2-2-x-x-x-x-2-2-x-x-x-x-2-2-x-x-7-7-7-|
|-0-0-x-x-x-x-0-0-x-x-x-x-0-0-x-x-x-x-0-0-x-x-x-x-0-0-x-x-x-x-0-0-x-x-------|

 ---------------------|
 ---------------------|
 -9-9-9-9-9-9-9-9-9-9-|
 -9-9-9-9-9-9-9-9-9-9-|
 -7-7-7-7-7-7-7-7-7-7-|
 ---------------------|


Bridge 1: (2:46) ( If you want play the bass-riff with your e-guitar...)

|-----------------------------------------------------------|
|-----------------------------------------------------------|
|-----------------------------------------------------------|  2x
|-----------------------------------------------------------|
|-----------------5-5-5-5-7-7-7-7-3-3-3-3-5-5-5-------------|
|-0-0-0-0-3-3-3-3-------------------------------0-3-2-0-----|


bridge 2: (3:00) (the same but with chords and distorsion)

|-----------------------------------------------------------|
|-----------------------------------------------------------|
|-----------------7-7-7-7-9-9-9-9-5-5-5-5-7-7-7-------------|  7x
|-2-2-2-2-5-5-5-5-7-7-7-7-9-9-9-9-5-5-5-5-7-7-7-------------|
|-2-2-2-2-5-5-5-5-5-5-5-5-7-7-7-7-3-3-3-3-5-5-5-------------|
|-0-0-0-0-3-3-3-3-------------------------------0-3-2-0-----|


pre ending: (3:42)

|---------------------------|
|---------------------------|
|-5-5-5-5-7-7-7-------------|
|-5-5-5-5-7-7-7-------------|
|-3-3-3-3-5-5-5-------------|
|---------------0-3-2-0-----|


ending: (3:46)

|---------------|
|---------------|
|-5-5-5-5-7-----|
|-5-5-5-5-7-----|
|-3-3-3-3-5-----|
|---------------|


That is it!!!
I hope you enjoy it!
If you have any comments or perhaps corrections contact me.
My (Roman) e-mail is: r.uster@gmx.ch
Comments