Offspring - Have You Ever Chords & Tabs

 

Have You Ever Chords & Tabs

Offspring Chords & Tabs

Version: 5 Type: Tab 0 ratings
1 star 2 stars 3 stars 4 stars 5 stars
comments

Have You Ever Tab

ARTIST:THE OFFSPRING
SONG:HAVE YOU EVER
ALBUM:AMERICANA
E-MAIL:greenday_rhcp2002@yahoo.co.uk

FOR THIS TAB I CHECKED OUT THE OTHER TABS ON THIS SITE AND THEY WHERE 
ALMOST PERFECT SO I COMBINED THE TWO AND ADDED SOME EXTRA LITTLE THINGS

 Intro
|--------------------|-------------------------|
|--------------------|-------------------------|
|--------------------|-------------------------|
|-9------------------|-------------------------|
|-7--7-7-7-7-7-7-x6--|-7-7-7-7-7-7-7-7-7-7-7-7-|
|----0-0-0-0-0-0-----|-0-0-0-0-0-0-0-0-0-0-0-0-|
pm   . . . . . .       . . . . . . . . . .

  BRIDGEx2
|-----------------------------------------------------------------|
|-----------------------------------------------------------------|
|-9-9-9-9-9-9-9-9-9-9-9-9-9-9-9-9-----------------7-7-7-7-7-7-7-7-|
|-9-9-9-9-9-9-9-9-9-9-9-9-9-9-9-9-5-5-5-5-5-5-5-5-7-7-7-7-7-7-7-7-|
|-7-7-7-7-7-7-7-7-7-7-7-7-7-7-7-7-5-5-5-5-5-5-5-5-5-5-5-5-5-5-5-5-|
|---------------------------------3-3-3-3-3-3-3-3-----------------|

 Verse x2
|-----------------------------------------------------------------|
|-----------------------------------------------------------------|
|-----------------------------------------------------------------|
|-9-9-9-9-9-9-9-9-9-9-9-9-9-9-9-9---------------------------------|
|-7-7-7-7-7-7-7-7-7-7-7-7-7-7-7-7-5-5-5-5-5-5-5-5-5-5-5-5-5-5-5-5-|
|---------------------------------3-3-3-3-3-3-3-3-3-3-3-3-3-3-3-3-|
pm . . . . . . . . . . . . . . . . . . . . . . . . . . . . . . . .

|---------------------------------------------------|
|---------------------------------------------------|
|---------------------------------------------------|
|-7-7-7-7-7-7-7-7-7-7-7-7-7-7-7-7-------------------|
|-5-5-5-5-5-5-5-5-5-5-5-5-5-5-5-5-7-7-7-7-7-7-10\9--|
|---------------------------------5-5-5-5-5-5--8\7--|
pm. . . . . . . . . . . . . . . .
[ Tab from: http://www.guitartabs.cc/tabs/o/offspring/have_you_ever_tab_ver_5.html ]
 verse 2nd guitar x2
|------------------------------2-0-2--2-0-2-------------------|
|------------------------------3-3-3--3-3-3-------------------|
|-------------------------------------------222222--5--444444-|
|---5\4/5--5\4/5--5-4-5--5-4-5--------------222222--5--444444-|
|-------------------------------------------000000--3--222222-|
|-------------------------------------------------------------|
PM  . . .  . . . 


 Chorus x4
|-----------------------------------------------------------------|
|-----------------------------------------------------------------|
|-9-9-9-9-9-9-9-9-5-5-5-5-5-5-5-5-----------------7-7-7-7-7-7-7-7-|
|-9-9-9-9-9-9-9-9-5-5-5-5-5-5-5-5-5-5-5-5-5-5-5-5-7-7-7-7-7-7-7-7-|
|-7-7-7-7-7-7-7-7-3-3-3-3-3-3-3-3-5-5-5-5-5-5-5-5-5-5-5-5-5-5-5-5-|
|---------------------------------3-3-3-3-3-3-3-3-----------------|

 
.NOW PLAY VERSE AGAIN x2


.NOW PLAY CHORUS x4


ON 4TH TIME PLAYIN CHORUS RIFF PLAY THIS AT END TILL THE BASS SOLO AND LET THIS NOTE RING
|---| 
|---| 
|-9-|
|-9-|
|-7-|
|---|


SLIDE UP THE FRET BOARD LISTEN TO SONG.
|-----------------------|
|-----------------------|
|-----------------------|
|-////////////////////--|
|-////////////////////--|
|-----------------------|


|--------------------|---------------------------------|
|--------------------|---------------------------------|
|--------------------|---------------------------------|
|-9------------------|--------------------------9-9-9--|
|-7--7-7-7-7-7-7--x6-|-7-7-7-7-7-7-7-7-7-7-7-7--7-7-7--|
|----0-0-0-0-0-0-----|-0-0-0-0-0-0-0-0-0-0-0-0---------|
pm   . . . . . .       . . . . . . . . . . . .


JUST MEANS TO SLIDE UPWARDS ON THE GUITAR.LISTEN TO SONG.
|-----------|
|-----------|
|-----------|
|-/////////-|
|-////////--|
|-----------|



OUTROx6
|--------------------------------------------------------|
|--------------------------------------------------------|
|-----------------7-7-7-7-9-9-9-9-5-5-5-5-7-7------------|
|-2-2-2-2-5-5-5-5-7-7-7-7-9-9-9-9-5-5-5-5-7-7--2--5-5-2--|
|-2-2-2-2-5-5-5-5-5-5-5-5-7-7-7-7-3-3-3-3-5-5--2--5-5-2--|
|-0-0-0-0-3-3-3-3------------------------------0--3-2-0--|

END LIKE THIS
|----------------------------------------|
|----------------------------------------|
|-5-5-5-5--7-7-7-7-----------------------|
|-5-5-5-5--7-7-7-7--2--5-5--2-2-2-2-2-2--|
|-3-3-3-3--5-5-5-5--2--5-5--2-2-2-2-2-2--|
|-------------------0--3-2--0-0-0-0-0-0--|
Comments