Offspring - Have You Ever Chords & Tabs

 

Have You Ever Chords & Tabs

Offspring Chords & Tabs

Version: 4 Type: Tab 0 ratings
1 star 2 stars 3 stars 4 stars 5 stars
comments

Have You Ever Tab

   
This is a wicked Offspring punk song which consists of a few chords and
is fairly easy to play.

*=notes which are P.M

  Intro
e|---------------------------------------------------------------------------|
B|---------------------------------------------------------------------------|
G|---------------------------------------------------------------------------|
D|-9-------------9--------------x8(I think)----------------------------------|
A|-7-------------7-----------------------------------------------------------|
E|---0-0-0-0-0-0---0-0-0-0-0-0-----------------------------------------------|
     * * * * * *   * * * * * *

  Then ("fallin'")
e|---------------------------------------------------------------------------|
B|---------------------------------------------------------------------------|
G|-9-9-9-9-9-9-9-9-9-9-9-9-9-9-9-9-----------------7-7-7-7-7-7-7-7-----------|
D|-9-9-9-9-9-9-9-9-9-9-9-9-9-9-9-9-5-5-5-5-5-5-5-5-7-7-7-7-7-7-7-7-----------|
A|-7-7-7-7-7-7-7-7-7-7-7-7-7-7-7-7-5-5-5-5-5-5-5-5-5-5-5-5-5-5-5-5-----------|
E|---------------------------------3-3-3-3-3-3-3-3---------------------------|

  Verse (all palm muted)
e|---------------------------------------------------------------------------|
B|---------------------------------------------------------------------------|
G|---------------------------------------------------------------------------|
D|-9-9-9-9-9-9-9-9-9-9-9-9-9-9-9-9---------------------------------7-7-7-7-7-|
A|-7-7-7-7-7-7-7-7-7-7-7-7-7-7-7-7-5-5-5-5-5-5-5-5-5-5-5-5-5-5-5-5-5-5-5-5-5-|
E|---------------------------------3-3-3-3-3-3-3-3-3-3-3-3-3-3-3-3-----------|
[ Tab from: http://www.guitartabs.cc/tabs/o/offspring/have_you_ever_tab_ver_4.html ]
e|---------------------------------------------------------------------------|
B|---------------------------------------------------------------------------|
G|---------------------------------------------------------------------------|
D|-7-7-7-7-7-7-7-7-7-7-7-----------------------------------------------------|
A|-5-5-5-5-5-5-5-5-5-5-5-7-7-7-7-7-7-10\9------------------------------------|
E|-----------------------5-5-5-5-5-5--8\7------------------------------------|

  Chorus
e|---------------------------------------------------------------------------|
B|---------------------------------------------------------------------------|
G|-9-9-9-9-9-9-9-9-5-5-5-5-5-5-5-5-----------------7-7-7-7-7-7-7-7-----------|
D|-9-9-9-9-9-9-9-9-5-5-5-5-5-5-5-5-5-5-5-5-5-5-5-5-7-7-7-7-7-7-7-7-----------|
A|-7-7-7-7-7-7-7-7-3-3-3-3-3-3-3-3-5-5-5-5-5-5-5-5-5-5-5-5-5-5-5-5-----------|
E|---------------------------------3-3-3-3-3-3-3-3---------------------------|
  Then there's that "fallin'" part this time you use the same chords as the
chorus instead of the other ones.

  Interlude is the same as the intro.

  Then the wicked bass solo.
G|---------------------------------------------------------------------------|
D|---------------------------------------------------------------------------|
A|-----------------5-5-5-5-7-7-7-7-3-3-3-3-5-5-------------------------------|
E|-0-0-0-0-3-3-3-3-----------------------------0-2-3-2-0---------------------|

  Then the guitar and vocals come in:
e|---------------------------------------------------------------------------|
B|---------------------------------------------------------------------------|
G|-----------------7-7-7-7-9-9-9-9-5-5-5-5-7-7-------------------------------|
D|-2-2-2-2-5-5-5-5-7-7-7-7-9-9-9-9-5-5-5-5-7-7--2--5-5-2---------------------|
A|-2-2-2-2-5-5-5-5-5-5-5-5-7-7-7-7-3-3-3-3-5-5--2--5-5-2---------------------|
E|-0-0-0-0-3-3-3-3------------------------------0--3-2-0---------------------|

Thats the whole song and I tried my best at tabbing it.
Comments