Offspring - Have You Ever Chords & Tabs

 

Have You Ever Chords & Tabs

Offspring Chords & Tabs

Version: 3 Type: Tab 0 ratings
1 star 2 stars 3 stars 4 stars 5 stars
comments

Have You Ever Tab

HAVE YOU EVER by The Offspring. Album : Americana (1998)
Great song with great feeling - great to begin with!
:
# intro #
E-------X6----------|-----------------------------------|
B-------/-p-mute--\-|-----------------------------------|
G---9---------------|-9-9-9-9-9-9-9-9-9-9-9-9-9-9-9-9---|
D---9---------------|-9-9-9-9-9-9-9-9-9-9-9-9-9-9-9-9---|
A---7---7-7-7-7-7-7-|-7-7-7-7-7-7-7-7-7-7-7-7-7-7-7-7---|
E-------0-0-0-0-0-0-|-----------------------------------|
:
# intro2 # X2   !play all notes X6!
E-------------------------------|
B-------------------------------|
G---9-------9---------------7---|
D---9-------9-------5-------7---|
A---7-------7-------5-------5---|
E-------------------3-----------|
:
# verse # X2  *=play 6X
E-------------------------------------------2-0-2-----2-0-2-----------------|
B---/--palm-muted---\-----------------------3-3-3-----3-3-3------*-------*--|
G---------------------------------------------------------------2-----5-4---|
D---5-4-5-----5-4-5-----5-4-5-----5-4-5-------------------------2-----5-4---|
A---------------------------------------------------------------0-----3-2---|
E---------------------------------------------------------------------------|
:
# chorus # X4   !play all notes X6!  (play last note last time X12)
E-------------------------------|
B-------------------------------|
G---9-------5---------------7---|   > Then play verseX2 and chorusX6.
D---9-------5-------5-------7---|
A---7-------3-------5-------5---|
E-------------------3-----------|
:
# bridge # 
E-------X8--------|-----|
B-----------------|-----|
G-----------------|-----|
D---2-2-2-2-2-2---|-2---|        > Then play intro.
A-----------------|-2---|
E-----------------|-0---|
:
# outro # X6 !pick-slide!
E-------------------------------------------------|
B-------------------------------------------------|
G---9-9-9-------7-7-7-9-9-9-5-5-5-7-----------9---|
D---9-9-9-5-5-5-7-7-7-9-9-9-5-5-5-7---------2-9---|
A---7-7-7-5-5-5-5-5-5-7-7-7-3-3-3-5---------2-7---|
E---------3-3-3---------------------0-2-3-2-0-----|
:
# outro2 #
E-----------------------------------|
B-----------------------------------|
G---5-5-5-7-----------9-5-5-5-5-7---|
D---5-5-5-7---------2-9-5-5-5-5-7---|
A---3-3-3-5---------2-7-3-3-3-3-5---|
E-----------0-2-3-2-0---------------|
:

[ Tab from: http://www.guitartabs.cc/tabs/o/offspring/have_you_ever_tab_ver_3.html ]
Comments