Offspring - Have You Ever Chords & Tabs

 

Have You Ever Chords & Tabs

Offspring Chords & Tabs

Version: 2 Type: Tab 1 rating
1 star 2 stars 3 stars 4 stars 5 stars
comments

Have You Ever Tab

#----------------------------------PLEASE NOTE--------------------------------#
#This file is the author's own work and represents their interpretation of the#
#song. You may only use this file for private study, scholarship, or research.#
#-----------------------------------------------------------------------------#
#-- File created with Instab - http://www.pconline.com/~smcarey/instab.html --#
#-----------------------------------------------------------------------------#

Author/Artist: Offspring
Title: Have you ever
Album: Americana
Transcribed by: Michael Woodard
Email: michael_woodard@yahoo.com

------------------------------------------------------------------------------
------------------------------------------------------------------------------
--9-------------9-------------------------------------------------------------
--9-------------9-------------------------------------------------------------
--7-------------7-------------------------------------------------------------
----x-x-x-x-x-x---x-x-x-x-x-x-------------------------------------------------
    Play 3 times for Intro  then the E quickly until the verse                

------------------------------------------------------------------------------
------------------------------------------------------------------------------
--9---------------------7-----------------------------------------------------
--9--------------5------7-----------------------------------------------------
--7--------------5------5-----------------------------------------------------
-----------------3------------------------------------------------------------
  "Falling, I'm fal--ling" (strumming not shown easy to figure out)           

------------------------------------------------------------------------------
------------------------------------------------------------------------------
-----------------------------------------------11--10--11--11--10--11---------
-----------------------12--11--12---12--11-12--0---0---0---0---0---0----------
--10-9-10---10-9-10----10--9---10---10--9--10---------------------------------
-0--------0----------0-----------0--------------------------------------------
 "Have you ever walked thru a room...:"   

------------------------------------------------------------------------------
------------------------------------------------------------------------------
------------10--9-------------------------------------------------------------
-7--7--7----10--9-------------------------------------------------------------
-7--7--7----8---7-------------------------------------------------------------
-5--5--5----------------------------------------------------------------------
 "... Neck that pulled you thru  (Repeat for remainder of verse)              
[ Tab from: http://www.guitartabs.cc/tabs/o/offspring/have_you_ever_tab_ver_2.html ]
------------------------------------------------------------------------------
------------------------------------------------------------------------------
-9-9-9-9-9---5-5-5-5-------------7-7-7-7--------------------------------------
-9-9-9-9-9---5-5-5-5----5-5-5-5--7-7-7-7--------------------------------------
-7-7-7-7-7---3-3-3-3----5-5-5-5--5-5-5-5--------------------------------------
------------------------3-3-3-3-----------------------------------------------
 "Well I know..." Play 4 times for the chorus                                 

------------------------------------------------------------------------------
------------------------------------------------------------------------------
--9------------9--------------------------------------------------------------
--9------------9--------------------------------------------------------------
--7------------7--------------------------------------------------------------
---x-x-x-x-x-x----------------------------------------------------------------
  Repeat intro but slow tempo each time   Then a bass solo                    

------------------------------------------------------------------------------
------------------------------------------------------------------------------
-------------9-9---------------7-7------9-9--------------5-5------------------
-------------9-9--------5-5----7-7------9-9--------------5-5------------------
-------------7-7--------5-5----5-5------7-7--------------3-3------------------
------------------------3-3---------------------------------------------------
  "When the truth walks away..."    

------------------------------------------------------------------------------
------------------------------------------------------------------------------
--7-7-------------------------------------------------------------------------
--7-7-------------------------------------------------------------------------
--5-5-------------------------------------------------------------------------
-------0-2-3-2-0--------------------------------------------------------------
 world is that crime does pay" Play 6 times                                   

------------------------------------------------------------------------------
------------------------------------------------------------------------------
-5-5-5-5----------------7-----------------------------------------------------
-5-5-5-5----------------7-----------------------------------------------------
-3-3-3-3----------------5-----------------------------------------------------
------------------------------0-2-3-2-0---------------------------------------
 "I'd like to make..." play 2 times                  

------------------------------------------------------------------------------
------------------------------------------------------------------------------
-5-5-5-5---7------------------------------------------------------------------
-5-5-5-5---7------------------------------------------------------------------
-3-3-3-3---5------------------------------------------------------------------
------------------------------------------------------------------------------
 End on this                                                                  
Comments