Offspring - Have You Ever Chords & Tabs

 

Have You Ever Chords & Tabs

Offspring Chords & Tabs

Version: 4 Type: Bass Tab 0 ratings
1 star 2 stars 3 stars 4 stars 5 stars
comments

Have You Ever Bass Tab

|---------------------------------------------------------------|
|                         Tabbed By Gee                         |
|                 HommieGee@rockonpeople.zzn.com                |
|             rockonpeople@communities.ninemsn.com.au           |
|---------------------------------------------------------------|

Bass Tabz
Offspring
Americana
Have You Ever

Intro
G|----------|----------|----------|
D|----------|----------|----------|
A|-7--------|-7--------|-7--------|
E|---000000-|---000000-|---000000-|

Intro

Pre-Post-Intro
G|----------|----------|
D|----------|----------|
A|----------|----------|
E|-00000000-|-00000000-|

Post-Intro
G|----------|----------|----------|----------|
D|----------|----------|----------|----------|
A|-77777777-|-----5555-|-77777777-|-----5555-|
E|----------|-3333-----|----------|-3333-----|

Verse
G|----------|----------|----------|----------|
D|----------|----------|----------|----------|
A|----------|----------|-55555555-|----------|
E|-00000000-|-33333333-|----------|-55587777-|
[ Tab from: http://www.guitartabs.cc/tabs/o/offspring/have_you_ever_btab_ver_4.html ]
Verse

Chorus
G|----------|----------|----------|----------|
D|----------|----------|----------|----------|
A|-77773333-|-----5555-|-77773333-|-----5555-|
E|----------|-3333-----|----------|-3333-----|

Chorus
Verse
Verse
Chorus
Chorus
Chorus

G|----------|----------|----------|----------|
D|----------|----------|----------|----------|
A|----------|----------|----------|----------|
E|----------|----------|----------|----------|

G|----------|----------|----------|----------|
D|----------|----------|----------|----------|
A|----------|----------|----------|----------|
E|----------|----------|----------|----------|

Intro
Intro
Pre-Post-Intro

Bridge
G|----------|----------|----------|----------|
D|----------|----------|----------|----------|
A|-7777-----|-55557777-|-333355---|-------7--|
E|-----3333-|----------|-------02-|-3-2-0----|

Bridge
Bridge
Bridge
Bridge
Bridge
Bridge
Bridge

Outro
G|----------|----------|----------|
D|----------|----------|----------|
A|-333355---|-------3--|-33335~~~-|
E|-------02-|-3-2-0----|----------|
Comments