Offspring - Have You Ever Chords & Tabs

 

Have You Ever Chords & Tabs

Offspring Chords & Tabs

Version: 2 Type: Bass Tab 0 ratings
1 star 2 stars 3 stars 4 stars 5 stars
comments

Have You Ever Bass Tab

#----------------------------------PLEASE NOTE---------------------------------#
#This file is the author's own work and represents their interpretation of the #
#song. You may only use this file for private study, scholarship, or research. #
#------------------------------------------------------------------------------##

Song: Have You Ever
Artist: The Offspring
Album: Americana
Tabbed By Danger Seph seph_uk2001@hotmail.com
Previous Author Ba$$ Lizard (CRoyale007@aol.com)

The tab I just seen for this song was right but I found an easier one than that:


Intro:

G:-----------------------|
D:--2--------------------|
A:-----------------------|
E:-----0--0--0--0--0--0--|

Intro to Pre-verse Brigde:

G:--------------------------------------------------|
D:--2--2--2--2--2--2--2--2--2--2--2--2--2--2--2--2--|
A:--------------------------------------------------|
E:--------------------------------------------------|

Pre-verse:

G:-------------------------------------------------|
D:--2--2--2--2--2--2--2--2-------------0--0--0--0--|
A:-------------------------------------------------|
E:---------------------------3--3--3--3------------|

Verse:
[ Tab from: http://www.guitartabs.cc/tabs/o/offspring/have_you_ever_btab_ver_2.html ]
G:--------------------------------------------------------------------------------------------------|
D:--------------------------------------------------------------------------------------------------|
A:--------------------------------------------------5--5--5--5--5--5--5--5--------------------------|
E:--0--0--0--0--0--0--0--0--3--3--3--3--3--3--3--3--------------------------5--5--5--8--7--7--7--7--|

Chorus:

G:-----------------------------------------------------|
D:--2--2--2--2-----------------------------0--0--0--0--|
A:----------------3--3--3--3---------------------------|
E:------------------------------3--3--3--3-------------|

Solo / Crime Does Pay part

G:---------------------------------------------------------------------------------------|
D:--2----2--2--2--2--------------0--0--0--0-2--2--2--2--------------0--0-----------------|
A:------------------------------------------------------3--3--3--3-----------------------|
E:-------------------3--3--3--3-------------------------------------------0--2--3--2--0--|

Ending:

G:-------------------------------------------------------------|
D:--------------------0--0--------------------------------(0)--|
A:--3--3--3--3--3--3-----------------------3--3--3--3--3-------|
E:--------------------------0--2--3--2--0----------------------|

() Let Ring

Song Stucture:

Intro x 6
Intro to Pre-Verse Brigde x 1
Pre-Verse x 2
Verse x 2
Chorus x 4 (play D 12 more times after the fourth time)
Verse x 2
Chorus x 6 (let the last D ring out)
Scratch from 2nd fret D up (Listen to song for timing)
Intro x 6 playing slower every time
Solo x 6
Ending x 1

And thats it if you got any corrections or comments e-mail me, my address is at the to
Comments