Offspring - Hand Grenades Chords & Tabs

 

Hand Grenades Chords & Tabs

Offspring Chords & Tabs

Version: 1 Type: Bass Tab 0 ratings
1 star 2 stars 3 stars 4 stars 5 stars
comments

Hand Grenades Bass Tab

Like most of the songs of the Offspring this also as repetitions.
I have shortened the tab a little by using symbols.

This is the chorus (play x2)
[ Tab from: http://www.guitartabs.cc/tabs/o/offspring/hand_grenades_btab.html ]
G------------66-666-6------------------|
D--------------------44-444--46--------|
A---4-4-444-----------------4--4-444---|
E----------46--------------------------|

THis is the verse 

  *=play 8X    #=play 4X 
G----------------------------*-----#--#--|
D----*-----*-----*-----*----2-----4--6---|
A---4-----4-----4-----4------------------|
E----------------------------------------|


ENjoy!


By Lemonidas
Comments