Offspring - Gotta Get Away Chords & Tabs

 

Gotta Get Away Chords & Tabs

Offspring Chords & Tabs

Version: 8 Type: Tab 0 ratings
1 star 2 stars 3 stars 4 stars 5 stars
comments

Gotta Get Away Tab

Tablatura de NICO M. (nicokbbl@hotmail.com)

Artista: The Offspring
Cancion: Gotta Get Away
Album: Smash (1994) 



Intro
1|-------------------------------------------------|
2|--------8-----8--7--------5~~~~~~~~~~~~~~~~~~~~~-|
3|-(7)(7)-7-----7--7--------4~~~~~~~~~~~~~~~~~~~~~-|\
4|-------------------------------------------------| \
5|-------------------------------------------------|  \
6|-------------------------------------------------|   \
                                                        |-----> x2
                                                       /
1|-------------------------------------------------|  /
2|--------8-----8--7-10-----5~~~~~~~~~~~~~~~~~~~~~-| /
3|-(7)(7)-7-----7--7--7-----4~~~~~~~~~~~~~~~~~~~~~-|/
4|-------------------------------------------------|
5|-------------------------------------------------|
6|-------------------------------------------------|


 
1|-------------------------------------------------|
2|-------------------------------------------------|
3|--------7--7--------7--7--------9--9--------9--9-|
4|--------7--7--------7--7--------9--9--------9--9-|\
5|--------5--5--------5--5--------7--7--------7--7-| \
6|--0--0--------0--0--------0--0--------0--0-------|  \
                                                       \
                                                        |-----> x2
                                                       / 
1|-------------------------------------------------|  /
2|-------------------------------------------------| /
3|-------12-12-------14-----9-----9-10--9-10--9----|/
4|-------12-12-------14-----9-----9--9--9--9--9----|
5|-------10-10-------12-----7-----7--7--7--7--7----|
6|--0--0--------0--0-------------------------------|


 
1|-------------------------------------------------|
2|-------------------------------------------------|
3|--------7--7--------7--7--------9--9--------9--9-|
4|--------7--7--------7--7--------9--9--------9--9-|\
5|--------5--5--------5--5--------7--7--------7--7-| \
6|--0--0--------0--0--------0--0--------0--0-------|  \
                                                       \
                                                        |-----> x4
                                                       /
1|-------------------------------------------------|  /
2|-------------------------------------------------| / 
3|-------12-12-------14-----9-----9-10--9-10--9----|/
4|-------12-12-------14-----9-----9--9--9--9--9----|
5|-------10-10-------12-----7-----7--7--7--7--7----|
6|--0--0--------0--0-------------------------------|




 
1|-------------------------------------------------|
2|-------------------------------------------------|
3|--9--9--9--9-------------12-12-12-12-------------|x4
4|--9--9--9--9-10-10-10-10-12-12-12-12-12-12-12-12-|
5|--7--7--7--7-10-10-10-10-10-10-10-10-12-12-12-12-|
6|--------------8--8--8--8-------------10-10-10-10-|

 
[ Tab from: http://www.guitartabs.cc/tabs/o/offspring/gotta_get_away_tab_ver_8.html ]
 
1|-------------------------------------------------|
2|-------------------------------------------------|
3|--------7--7--------7--7--------9--9--------9--9-|
4|--------7--7--------7--7--------9--9--------9--9-|\
5|--------5--5--------5--5--------7--7--------7--7-| \
6|--0--0--------0--0--------0--0--------0--0-------|  \
                                                       \
                                                        |-----> x2
                                                       / 
1|-------------------------------------------------|  /
2|-------------------------------------------------| /
3|-------12-12-------14-----9-----9-10--9-10--9----|/
4|-------12-12-------14-----9-----9--9--9--9--9----|
5|-------10-10-------12-----7-----7--7--7--7--7----|
6|--0--0--------0--0-------------------------------|




 
1|-------------------------------------------------|
2|-------------------------------------------------|
3|--------7--7--------7--7--------9--9--------9--9-|
4|--------7--7--------7--7--------9--9--------9--9-|\
5|--------5--5--------5--5--------7--7--------7--7-| \
6|--0--0--------0--0--------0--0--------0--0-------|  \
                                                       \
                                                        |-----> x4
                                                       /
1|-------------------------------------------------|  /
2|-------------------------------------------------| / 
3|-------12-12-------14-----9-----9-10--9-10--9----|/
4|-------12-12-------14-----9-----9--9--9--9--9----|
5|-------10-10-------12-----7-----7--7--7--7--7----|
6|--0--0--------0--0-------------------------------|



 
1|-------------------------------------------------|
2|-------------------------------------------------|
3|--9--9--9--9-------------12-12-12-12-------------|x6
4|--9--9--9--9-10-10-10-10-12-12-12-12-12-12-12-12-|
5|--7--7--7--7-10-10-10-10-10-10-10-10-12-12-12-12-|
6|--------------8--8--8--8-------------10-10-10-10-|



1|-------------------------------------------------|
2|--------8-----8--7--------5~~~~~~~~~~~~~~~~~~~~~-|
3|-(7)(7)-7-----7--7--------4~~~~~~~~~~~~~~~~~~~~~-|\
4|-------------------------------------------------| \
5|-------------------------------------------------|  \
6|-------------------------------------------------|   \
                                                        |-----> x2
                                                       /
1|-------------------------------------------------|  /
2|--------8-----8--7-10-----5~~~~~~~~~~~~~~~~~~~~~-| /
3|-(7)(7)-7-----7--7--7-----4~~~~~~~~~~~~~~~~~~~~~-|/
4|-------------------------------------------------|
5|-------------------------------------------------|
6|-------------------------------------------------|





1|-------------------------------------------------|
2|-------------------------------------------------|
3|--------7--7--------7--7--------9--9--------9--9-|
4|--------7--7--------7--7--------9--9--------9--9-|\
5|--------5--5--------5--5--------7--7--------7--7-| \
6|--0--0--------0--0--------0--0--------0--0-------|  \
                                                       \
                                                        |-----> x2
                                                       / 
1|-------------------------------------------------|  /
2|-------------------------------------------------| /
3|-------12-12-------14-----9-----9-10--9-10--9----|/
4|-------12-12-------14-----9-----9--9--9--9--9----|
5|-------10-10-------12-----7-----7--7--7--7--7----|
6|--0--0--------0--0-------------------------------|




1|-------------------------------------------------|
2|-------------------------------------------------|
3|--9--9--9--9-------------12-12-12-12-------------|x8
4|--9--9--9--9-10-10-10-10-12-12-12-12-12-12-12-12-|
5|--7--7--7--7-10-10-10-10-10-10-10-10-12-12-12-12-|
6|--------------8--8--8--8-------------10-10-10-10-|




 (final) (ending)
1|--0----------------------------------------------|
2|--0----------------------------------------------|
3|--1----------------------------------------------|
4|--2----------------------------------------------|
5|--2----------------------------------------------|
6|--0----------------------------------------------|
Comments