Offspring - Gotta Get Away Chords & Tabs

 

Gotta Get Away Chords & Tabs

Offspring Chords & Tabs

Version: 6 Type: Tab 0 ratings
1 star 2 stars 3 stars 4 stars 5 stars
comments

Gotta Get Away Tab

Gotta Get Away - OFFSPRING

Tabbed by: Ben
E-mail: dunning5@hotmail.com

Intro:
e|-----------------------------------------
B|---------8-8-7--5-------------8-8-10-5---
G|----7-7--7-7-7--4-------------7-7--7-4---    X2
D|-----------------------------------------
A|-----------------------------------------
E|-----------------------------------------

Main riff:

E-------------------------------------------------------------------------------
B-------------------------------------------------------------------------------
G-9-9-7-7--9-9-7-7--9-9-12-12--9-9-12-12--9-9-14-14--9-9-14-14--9-9-10-9-10-9-10
D-9-9-7-7--9-9-7-7--9-9-12-12--9-9-12-12--9-9-14-14--9-9-14-14--9-9-10-9-10-9-10
A-7-7-5-5--7-7-5-5--7-7-10-10--7-7-10-10--7-7-12-12--7-7-12-12--7-7-8--7--8-7--8
E-------------------------------------------------------------------------------

[ Tab from: http://www.guitartabs.cc/tabs/o/offspring/gotta_get_away_tab_ver_6.html ]
Verse:
     
e|------------------------------------------------------------------------
B|------------------------------------------------------------------------
G|-----7-7-----7-7-----9-9-----9-9-----12-12-----14-14---9-9-10-9-10-9-10-
D|-----7-7-----7-7-----9-9-----9-9-----12-12-----14-14---9-9-10-9-10-9-10-
A|-----5-5-----5-5-----7-7-----7-7-----10-10-----12-12---7-7--8-7--8-7--8-
E|-0-0-----0-0-----0-0-----0-0-----0-0-------0-0--------------------------
 

CHORUS:
  
e|----------------------------------------------------------------
B|----------------------------------------------------------------
G|--9--9--9--9------------------12--12--12--12--------------------
D|--9--9--9--9--10--10--10--10--12--12--12--12--12--12--12--12----
A|--7--7--7--7--10--10--10--10--10--10--10--10--12--12--12--12----
E|---------------8---8---8---8------------------10--10--10--10----


END ON E
E|-----||
B|-----||
G|-----||
D|--2--||
A|--2--||
E|--0--||

Thats basically it just keep repeating these tabs in the right places.
Comments