Offspring - Gotta Get Away Chords & Tabs

 

Gotta Get Away Chords & Tabs

Offspring Chords & Tabs

Version: 5 Type: Tab 0 ratings
1 star 2 stars 3 stars 4 stars 5 stars
comments

Gotta Get Away Tab

   
Intro:
e|------------------------------------------
B|---------8-8-7--5-------------8-8-10------
G|--7-7-7--7-7-7--4------7-7-7--7-7--7------    X2
D|------------------------------------------
A|------------------------------------------
E|------------------------------------------
[ Tab from: http://www.guitartabs.cc/tabs/o/offspring/gotta_get_away_tab_ver_5.html ]
Main Riff/Verse
     D5        E5       G5         A5       E5         
e|-----------------------------------------------------------
B|-----------------------------------------------------------
G|----7-7------9-9------12-12------14-14-----9-9-10-9-10-9---
D|----7-7------9-9------12-12------14-14-----9-9--9-9--9-9---
A|----5-5------7-7------10-10------12-12-----7-7--7-7--7-7---
E|--0------0-0------0-0--------0-0-------0-0-----------------
            For verse PM the    *** Notice the 10 on the G string
            low open E notes.      

CHORUS
   E5           C5              G5              D5
e|----------------------------------------------------------------
B|----------------------------------------------------------------
G|--9--9--9--9------------------12--12--12--12--------------------
D|--9--9--9--9--10--10--10--10--12--12--12--12--12--12--12--12----
A|--7--7--7--7--10--10--10--10--10--10--10--10--12--12--12--12----
E|---------------8---8---8---8------------------10--10--10--10----

         Questions, comments, corrections, love stories, etc.
         Contact accuratetabs_danc@yahoo.com
Comments