Offspring - Gotta Get Away Chords & Tabs

 

Gotta Get Away Chords & Tabs

Offspring Chords & Tabs

Version: 4 Type: Tab 0 ratings
1 star 2 stars 3 stars 4 stars 5 stars
comments

Gotta Get Away Tab

Gotta Get Away
The Offspring


  Bass Intro
G ---------------------------------------------------------------------------|
D ---------------------------------------------------------------------------|
A -3-4-5-5-5-5-5-5-5-5-5---7-----7-7-------5-5-5-5-5-5-5-5-5---7-----7-7-----|
E -----------------------0---0-0-----0-0-0-------------------0---0-0-----0-0-|
 
  Guitar, Light Distortion
E -10-10----3-3-3--0------10-10----3-3-5--0----|
B ----------3-3-2--0---------------3-3-3--0----|
G ---------------------------------------------|
D ---------------------------------------------|
A ---------------------------------------------|
E ---------------------------------------------|
 
  Guitar, Heavy Distortion
E ---------------------------------------------------------------------------|
B ---------------------------------------------------------------------------|
G -9-9s7-7--9-9s7-7--9-9s12-12--9-9s12-12--9-9s14-14--9-9s14-14---9-10-9-10-9|
D -9-9s7-7--9-9s7-7--9-9s12-12--9-9s12-12--9-9s14-14--9-9s14-14---9-10-9-10-9|
A -7-7s5-5--7-7s5-5--7-7s10-10--7-7s10-10--7-7s12-12--7-7s12-12---7-8--7-8--7|
E ---------------------------------------------------------------------------|
 
  Verse
E ------------------------------------------------------------------|
B ------------------------------------------------------------------|
G -----7-7-----7-7------9-9-----9-9-----12-12-----14---9-10-9-10-9--|
D -----7-7-----7-7------9-9-----9-9-----12-12-----14---9-10-9-10-9--|
A -----5-5-----5-5------7-7-----7-7-----10-10-----12---7-8--7-8--7--|
E -0-0-----0-0------0-0-----0-0-----0-0-------0-0-------------------|
 
  Chorus
E ----------------------------------------|
B ----------------------------------------|
G -9-9-9-------------------------7-7-7-7--|
D -9-9-9-9s10-10-10-10--5-5-5-5--7-7-7-7--|
A -7-7-7-9s10-10-10-10--5-5-5-5--5-5-5-5--|
E -------7s8--8--8--8---3-3-3-3-----------|
 
[ Tab from: http://www.guitartabs.cc/tabs/o/offspring/gotta_get_away_tab_ver_4.html ]
---------------------- 
"Gotta Get Away" by "Offspring"
Album: "Smash"(1994)



INTRO:
E|----------------------------------||
B|-----8~-8~7~5~~~-----8~-8~10~5~~~-||
G|-7-7-7~-7~6~4~~~-7-7-7~-7~ 9~4~~~-||
D|-----5~-5~4~2~~~-----5~-5~ 7~2~~~-||
A|----------------------------------||
E|----------------------------------||


PRE-VERSE:
E|-----------------------------------------------------|
B|-----------------------------------------------------|
G|-----7-7-----7-7-----9-9-----9-9-----12-12-----14-14-|
D|-----7-7-----7-7-----9-9-----9-9-----12-12-----14-14-|
A|-----5-5-----5-5-----7-7-----7-7-----10-10-----12-12-|
E|-0-0-----0-0-----0-0-----0-0-----0-0-------0-0-------|

E|--------------------||
B|--------------------||
G|-9/10\9/10\9/10\9~~-||
D|-9/10\9/10\9/10\9~~-||
A|-7/ 8\7/ 8\7/ 8\7~~-||
E|--------------------||

VERSE:
  PM--|   PM--|   PM--|   PM--|   PM--|     PM--|
E|-----------------------------------------------------|
B|-----------------------------------------------------|
G|-----7-7-----7-7-----9-9-----9-9-----12-12-----14-14-|
D|-----7-7-----7-7-----9-9-----9-9-----12-12-----14-14-|
A|-----5-5-----5-5-----7-7-----7-7-----10-10-----12-12-|
E|-0-0-----0-0-----0-0-----0-0-----0-0-------0-0-------|

E|--------------------||
B|--------------------||
G|-9/10\9/10\9/10\9~~-||
D|-9/10\9/10\9/10\9~~-||
A|-7/ 8\7/ 8\7/ 8\7~~-||
E|--------------------||


CHORUS:
E|-------------------------------------||
B|-------------------------------------||
G|----------5-5-5-5-----------7-7-7-7--||
D|-2-2-2-2--5-5-5-5--5-5-5-5--7-7-7-7--||
A|-2-2-2-2--3-3-3-3--5-5-5-5--5-5-5-5--||
E|-0-0-0-0-----------3-3-3-3-----------||



HERE'S THE ORDER:

INTRO:     2X
PRE-VERSE: 2X
VERSE:     4X
CHORUS:    4X
PRE-VERSE: 2X
VERSE:     4X
CHORUS:    6X
INTRO:     2X
VERSE:     2X
CHORUS:    8X
END ON "E"
E|-----||
B|-----||
G|-----||
D|--2--||
A|--2--||
E|--0--||
Comments