Offspring - Gotta Get Away Chords & Tabs

 

Gotta Get Away Chords & Tabs

Offspring Chords & Tabs

Version: 3 Type: Tab 0 ratings
1 star 2 stars 3 stars 4 stars 5 stars
comments

Gotta Get Away Tab

GOTTA GET AWAY by THE OFFSPRING from SMASH (1994)
This is a very easy song which is cool to play. I hope you will have fun.
I haven´t found any correct Tabs of this song in the internet. Roman Kugge was very 
close to the right version but his tab includes a few mistakes.
But I´ve good news: I´m absolutely sure that this one is correct.


=Intro1=  X2
|-------------------------------------------------------------------------------------|
|--------8--8-7----5-----------------------8---8-10----5-----------------------|
|--7-7-7--7-7----4------------------7-7-7---7--7----4------------------------|
|-------------------------------------------------------------------------------------|
|-------------------------------------------------------------------------------------|
|-------------------------------------------------------------------------------------|


=Intro 2 / Verse=  X2
|-------------------------------------------------------------------------------------------------------------|
|-------------------------------------------------------------------------------------------------------------|
|-------7-7-------7-7--------9-9------9-9------12-12-------14-14--9----9-10-9-10-9---------|
|-------7-7-------7-7--------9-9------9-9------12-12-------14-14--7----9-10-9-10-9---------|
|-------5-5-------5-5--------7-7------7-7------10-10-------12-12--7----7--8--7--8--7--------|
|--0-0-------0-0-------0-0-------0-0------0-0----------0-0------------------------------------------|

Then play
=Verse= X4
[ Tab from: http://www.guitartabs.cc/tabs/o/offspring/gotta_get_away_tab_ver_3.html ]
 
=Chorus 1=  X4 / play every chord 4 times
|----------------------------------------------------------------------------------------|
|----------------------------------------------------------------------------------------|
|--9--------12------------------------------------------------------------------------|
|--9--10--12--12-------------------------------------------------------------------|
|--7--10--10--12-------------------------------------------------------------------|
|-------8--------10-------------------------------------------------------------------|


Then play
=Intro 2=  X2
=Verse=  X4


=Chorus 2=  X6 / * = play this chord 4 times	
|-------------------------------|			
|-------------------------------|			
|--9*---------12*------------| 			
|--9*--10*--12*--12*-----|			
|--7*--10*--10*--12*-----|			
|--------8*----------10*-----|	


=Bridge 1=  X1
|-------------------------------------------------------------------------------------|
|--------8--8-7----5-----------------------8---8-10----5-----------------------|
|--------7--7-7----4------------------7-7-7---7--7----4------------------------|
|-------------------------------------------------------------------------------------|
|-------------------------------------------------------------------------------------|
|-------------------------------------------------------------------------------------|

Then play
=Intro 1= X1
=Verse= X2


=Chorus 3= X7 / * = play this chord 4 times
|-------------------------------|			
|-------------------------------|			
|--9*---------12*------------| 			
|--9*--10*--12*--12*-----|			
|--7*--10*--10*--12*-----|			
|--------8*----------10*-----|	

=Chorus-End= X1 / * = play this chord 4 times
|------------------------------|			
|------------------------------|			
|--9*---------12*--14*----| 			
|--9*--10*--12*--14*----|			
|--7*--10*--10*--12*----|			
|--------8*------------------|	


=End= X1 / let ring
|--------|
|--------|
|--9----|
|--9----|
|--7----|
|--------|


Send your comments about this Tab to "ali.germany2000@freenet.de"
Anyways, don´t forget that I´m just 14 years old - not bad, heh?

Tabbed by: Ali_A (3rd March 2001)					
Thanks to: Duff, Chris Wickens and Roman Kugge
Comments