Offspring - Gone Away Chords & Tabs

 

Gone Away Chords & Tabs

Offspring Chords & Tabs

Version: 8 Type: Tab 0 ratings
1 star 2 stars 3 stars 4 stars 5 stars
comments

Gone Away Tab

Tuning: Standard

(Drum Intro)

Guitar Intro/Main:  X2
E|------------------------------------------|
B|------------------------------------------|
G|-10-10-10-10-10-10-10-10------------------|
D|-10-10-10-10-10-10-10-10--6-6-6-6-6-6-6-6-|
A|--8--8--8--8--8--8--8--8--6-6-6-6-6-6-6-6-|
E|--------------------------4-4-4-4-4-4-4-4-|

E|----------------------------------|
B|----------------------------------|
G|-8-8-8-8-8-8-8-8------------------|
D|-8-8-8-8-8-8-8-8--8-8-8-8-8-8-8-8-|
A|-6-6-6-6-6-6-6-6--8-8-8-8-8-8-8-8-|
E|------------------6-6-6-6-6-6-6-6-|

Lead 1: (After 1st Main Riff)
E|-8-8-8-8-8-8-8-8--11-11-11-11-11-11-11-11-|
B|-6-6-6-6-6-6-6-6---9--9--9--9--9--9--9--9-|
G|------------------------------------------|
D|------------------------------------------|
A|------------------------------------------|
E|------------------------------------------|

E|-6-6-6-6-6-6-6-6--6-6-6-6-6-6-6-6-|
B|-4-4-4-4-4-4-4-4--6-6-6-6-6-6-6-6-|
G|----------------------------------|
D|----------------------------------|
A|----------------------------------|
E|----------------------------------|

Fig. 1:  (Let Ring)
E|--------|
B|--------|
G|--------|
D|-3~~~~~-|
A|-3~~~~~-|
E|-1~~~~~-|

Lead 2:
E|------------------------------------------------------|
B|------------------------------------------------------|
G|--------8-10---------6-8---------6-8--8-10------------|
D|-8-10----------5-6---------3-5-------------8-8-8-10-3-|
A|------8------------6-----------6----------------------|
E|------------------------------------------------------|

(Drum and Bass)

Main:  X4
E|------------------------------------------|
B|------------------------------------------|
G|-10-10-10-10-10-10-10-10------------------|
D|-10-10-10-10-10-10-10-10--6-6-6-6-6-6-6-6-|
A|--8--8--8--8--8--8--8--8--6-6-6-6-6-6-6-6-|
E|--------------------------4-4-4-4-4-4-4-4-|

E|----------------------------------|
B|----------------------------------|
G|-8-8-8-8-8-8-8-8------------------|
D|-8-8-8-8-8-8-8-8--8-8-8-8-8-8-8-8-|
A|-6-6-6-6-6-6-6-6--8-8-8-8-8-8-8-8-|
E|------------------6-6-6-6-6-6-6-6-|

Lead 1: (After Second Main Riff)   X2
E|-8-8-8-8-8-8-8-8--11-11-11-11-11-11-11-11-|
B|-6-6-6-6-6-6-6-6---9--9--9--9--9--9--9--9-|
G|------------------------------------------|
D|------------------------------------------|
A|------------------------------------------|
E|------------------------------------------|


E|-6-6-6-6-6-6-6-6--6-6-6-6-6-6-6-6-|
B|-4-4-4-4-4-4-4-4--6-6-6-6-6-6-6-6-|
G|----------------------------------|
D|----------------------------------|
A|----------------------------------|
E|----------------------------------|

(Drum and Bass)

Bridge:
E|------8----6----6-----------4-3--------|
B|----6----4----4------6---4-------4-4\6-|
G|--5----5----3----------5---------------| 
D|---------------------------------------|      
A|---------------------------------------|
E|---------------------------------------|

E|------8----6----6--|
B|----6----4----4----|
G|--5----5----3------| 
D|-------------------|      
A|-------------------|
E|-------------------|

Main:  X4
E|------------------------------------------|
B|------------------------------------------|
G|-10-10-10-10-10-10-10-10------------------|
D|-10-10-10-10-10-10-10-10--6-6-6-6-6-6-6-6-|
A|--8--8--8--8--8--8--8--8--6-6-6-6-6-6-6-6-|
E|--------------------------4-4-4-4-4-4-4-4-|

E|----------------------------------|
B|----------------------------------|
G|-8-8-8-8-8-8-8-8------------------|
D|-8-8-8-8-8-8-8-8--8-8-8-8-8-8-8-8-|
A|-6-6-6-6-6-6-6-6--8-8-8-8-8-8-8-8-|
E|------------------6-6-6-6-6-6-6-6-|

Lead 1: (After Second Main Riff)
E|-8-8-8-8-8-8-8-8--11-11-11-11-11-11-11-11-|
B|-6-6-6-6-6-6-6-6---9--9--9--9--9--9--9--9-|
G|------------------------------------------|
D|------------------------------------------|
A|------------------------------------------|
E|------------------------------------------|

E|-6-6-6-6-6-6-6-6--6-6-6-6-6-6-6-6-|
B|-4-4-4-4-4-4-4-4--6-6-6-6-6-6-6-6-|
G|----------------------------------|
D|----------------------------------|
A|----------------------------------|
E|----------------------------------|

~*~*~Some Chords are played here,
but I can't figure them out
so just play the Main/Lead one more time~*~*~
[ Tab from: http://www.guitartabs.cc/tabs/o/offspring/gone_away_tab_ver_8.html ]
Lead 2:
E|------------------------------------------------------|
B|------------------------------------------------------|
G|--------8-10---------6-8---------6-8--8-10------------|
D|-8-10----------5-6---------3-5-------------8-8-8-10-3-|
A|------8------------6-----------6----------------------|
E|------------------------------------------------------|

Fill: (Play at the end of Lead 2)
E|----------------------------------|
B|----------------------------------|
G|----------------------------------|
D|-8-8-8-8-8-8-8-8--8-8-8-8-8-8-8-8-|
A|-8-8-8-8-8-8-8-8--8-8-8-8-8-8-8-8-|
E|-6-6-6-6-6-6-6-6--6-6-6-6-6-6-6-6-|
PM . . . . . . . .  . . . . 

Main:  X2
E|------------------------------------------|
B|------------------------------------------|
G|-10-10-10-10-10-10-10-10------------------|
D|-10-10-10-10-10-10-10-10--6-6-6-6-6-6-6-6-|
A|--8--8--8--8--8--8--8--8--6-6-6-6-6-6-6-6-|
E|--------------------------4-4-4-4-4-4-4-4-|

E|----------------------------------|
B|----------------------------------|
G|-8-8-8-8-8-8-8-8------------------|
D|-8-8-8-8-8-8-8-8--8-8-8-8-8-8-8-8-|
A|-6-6-6-6-6-6-6-6--8-8-8-8-8-8-8-8-|
E|------------------6-6-6-6-6-6-6-6-|

Bridge:
E|------8----6----6-----------4-3--------|
B|----6----4----4------6---4-------4-4\6-|
G|--5----5----3----------5---------------| 
D|---------------------------------------|      
A|---------------------------------------|
E|---------------------------------------|

E|------8----6----6--|
B|----6----4----4----|
G|--5----5----3------| 
D|-------------------|      
A|-------------------|
E|-------------------|

Main:  X4
E|------------------------------------------|
B|------------------------------------------|
G|-10-10-10-10-10-10-10-10------------------|
D|-10-10-10-10-10-10-10-10--6-6-6-6-6-6-6-6-|
A|--8--8--8--8--8--8--8--8--6-6-6-6-6-6-6-6-|
E|--------------------------4-4-4-4-4-4-4-4-|

E|----------------------------------|
B|----------------------------------|
G|-8-8-8-8-8-8-8-8------------------|
D|-8-8-8-8-8-8-8-8--8-8-8-8-8-8-8-8-|
A|-6-6-6-6-6-6-6-6--8-8-8-8-8-8-8-8-|
E|------------------6-6-6-6-6-6-6-6-|

Lead 1: (After Second Main Riff)
E|-8-8-8-8-8-8-8-8--11-11-11-11-11-11-11-11-|
B|-6-6-6-6-6-6-6-6---9--9--9--9--9--9--9--9-|
G|------------------------------------------|
D|------------------------------------------|
A|------------------------------------------|
E|------------------------------------------|

E|-6-6-6-6-6-6-6-6--6-6-6-6-6-6-6-6-|
B|-4-4-4-4-4-4-4-4--6-6-6-6-6-6-6-6-|
G|----------------------------------|
D|----------------------------------|
A|----------------------------------|
E|----------------------------------|

Pre-Outro:
E|------------------------------------------|
B|------------------------------------------|
G|-10-10-10-10-10-10-10-10------------------|
D|-10-10-10-10-10-10-10-10--6-6-6-6-6-6-6-6-|
A|--8--8--8--8--8--8--8--8--6-6-6-6-6-6-6-6-|
E|--------------------------4-4-4-4-4-4-4-4-|

E|----------------------------------|
B|----------------------------------|
G|-8-8-8-8-8-8-8-8------------------|
D|-8-8-8-8-8-8-8-8--8-8-8-8-8-8-8-8-|
A|-6-6-6-6-6-6-6-6--8-8-8-8-8-8-8-8-|
E|------------------6-6-6-6-6-6-6-6-|

E|-----------------|-----------------|
B|-----------------|-----------------|
G|-----------------|-----------------|
D|-8-8-8-8-8-8-8-8-|-8-8-8-8-8-8-8-8-|
A|-8-8-8-8-8-8-8-8-|-8-8-8-8-8-8-8-8-|
E|-6-6-6-6-6-6-6-6-|-6-6-6-6-6-6-6-6-|

Lead 1: (With Pre-Outro)
E|-8-8-8-8-8-8-8-8--11-11-11-11-11-11-11-11-|
B|-6-6-6-6-6-6-6-6---9--9--9--9--9--9--9--9-|
G|------------------------------------------|
D|------------------------------------------|
A|------------------------------------------|
E|------------------------------------------|

E|-6-6-6-6-6-6-6-6--6-6-6-6-6-6-6-6-|
B|-4-4-4-4-4-4-4-4--6-6-6-6-6-6-6-6-|
G|----------------------------------|
D|----------------------------------|
A|----------------------------------|
E|----------------------------------|

E|-6-6-6-6-6-6-6-6-|-6-6-6-6-6-6-6-6-|
B|-6-6-6-6-6-6-6-6-|-6-6-6-6-6-6-6-6-|
G|-----------------|-----------------|
D|-----------------|-----------------|
A|-----------------|-----------------|
E|-----------------|-----------------|

Rhythm Outro: (Let Ring)
E|--------|
B|--------|
G|--------|
D|-3~~~~~-|
A|-3~~~~~-|
E|-1~~~~~-|


That's a Great Offspring song, Enjoy...Moth_Child
Comments