Offspring - Gone Away Chords & Tabs

 

Gone Away Chords & Tabs

Offspring Chords & Tabs

Version: 4 Type: Tab 0 ratings
1 star 2 stars 3 stars 4 stars 5 stars
comments

Gone Away Tab

   
by the Offspring
called Gone Away
off the album Ixnay on the Hombre

Three main part to it:

Intro/Chorus:

e----------------------------------------
B----------------------------------------
G-9-9-9-9-12-12-12-12-14-14-14-14-9-9-9-9
D-9-9-9-9-12-12-12-12-14-14-14-14-9-9-9-9
A-7-7-7-7-10-10-10-10-12-12-12-12-7-7-7-7
E----------------------------------------


e----------------------------------------
B----------------------------------------
G-------9---------7---------7-9----------
D-7h9h7-----7h9p7-----7h9p7-----7-7-9-7--
A----------------------------------------
E----------------------------------------


e----------------------------------------
B------12------10------10--10/12---------
G-9h11-----7h9-----7h9-----------12-11-9-
D----------------------------------------
A----------------------------------------
E----------------------------------------

e----------------------------------------
B------12------10------10----------------
G-9h11-----7h9-----7h9-------------------
D---------------------------9-9-9-9-9-9--
A---------------------------7-7-7-7-7-7--
E----------------------------------------

and then there's a little clean part about 2:38 that just is the
chorus.  We'll call that PART 4.


alright here's the song order.

4 measure drum

intro x 2

post-chorus x 1

bass part

chorus x 4

bass part

pre-chorus x 1

chorus x 4

part 4 x 1

post-chorus x 1

a few crunchy E powerchords (7th fret) as an intro to the chorus

chorus x 2

pre-chorus x 1

chorus x 5

------------------------------------
"Gone Away" by "The Offspring"
From the album "Ixnay on the Hombre"

 2 times
|-------------------------------------------------------------------------|
|-------------------------------------------------------------------------|
|-10-10-10-10-10-10-10-10-----------------8-8-8-8-8-8-8-8-----------------| 
|-10-10-10-10-10-10-10-10-6-6-6-6-6-6-6-6-8-8-8-8-8-8-8-8-8-8-8-8-8-8-8-8-|
|-8--8--8--8--8--8--8--8--6-6-6-6-6-6-6-6-6-6-6-6-6-6-6-6-8-8-8-8-8-8-8-8-|
|-------------------------4-4-4-4-4-4-4-4-----------------6-6-6-6-6-6-6-6-|

       |---
       |----
End on |----- and let it ring...
       |-3---
       |-3--
       |-1-

While another guitar plays...

|--------------------------------------------------------|
|--------------------------------------------------------|
|--------8\10----------6\8-----------6\8-8\10------------|
|-8-10-----------6-8--------------------------8-8-8\10/3-|
|------8-------------6--------8-10-6---------------------|
|--------------------------------------------------------|

 Drums and Bass only...
        
        Maybe in another life,
        I could find you there,
        Pulled away before your time, 
        I can't deal it's so unfair...

 Play the  twice over...
        
        And it feels,
        And it feels like,
        Heaven's so far away
        And it feels, 
        Yeah it feels like,
        The World has grown cold, 
        Now that you've gone away...
                                                       3
Then play the  twice again ending on the 3 and let it ring...
                                                       1
 Drums and Bass...

        Leaving flowers on your grave, 
        Show that I still care,
        Black roses and hail marys,
        Can't bring back, what's taken from me...
Then comes...        


|-----8----------6-------------6-------------\4-3-------|
|---6----------4-------------4---------6---4------4-4\6-|
|-5----------5-------------3-------------5--------------|
|-------------------------------------------------------|
|-------------------------------------------------------|
|-------------------------------------------------------|
        I reach to the sky,      and call out your name,


|-------8---------6----------------6------------------------|
|-6---6---------4----------------4--------------------------|
|---5---------5----------------3----------------------------|
|-------------------------------------------8-8-8-8-8-8-8-8-|
|-------------------------------------------8-8-8-8-8-8-8-8-|
|-------------------------------------------6-6-6-6-6-6-6-6-|
          And if I could trade,      I would...         And it feels...

 continues on from 'And it feels...'

        And it feels like,
        Heaven's so far away,
        And it stings,
        Yeah it stings now,
        The world is so cold,
        Now that you've gone away...

 is played twice again with all the 'gone away yeah yeah' 
stuff...listen to the song to work it out :)


|----------------------------------------------------------------------------|
|----------------------------------------------------------------------------|
|--------8\10----------6\8-----------6\8-8\10--------------------------------|
|-8-10-----------6-8--------------------------8-8-8-8-8-8-8-8-8-8-8-8-8-8-8-8|
|------8-------------6--------8-10-6----------8-8-8-8-8-8-8-8-8-8-8-8-8-8-8-8|
|---------------------------------------------6-6-6-6-6-6-6-6-6-6-6-6-6-6-6-6|
                                                         From about here do 
                                        the  'woah's and 'yeah' stuff again :)
                                        Played over the  twice.

Play  again followed by the first version of the  lyrics...

Finish by repeating 'Gone away...gone away yeah yeah' and all the 'ooh' things
                                                            8
again played over the  3 times...then playing 8 about 16 times
                3                                           6
and ending on a 3                                                             
                1




GONE AWAY 
by OFFSPRING
Taken from the album IXNAY ON THE HOMBRE

	
	Well, I DO like Offsrping and "Gone Away" is really a masterpiece.
That's not a difficult music to get it's chords but I hope I'm saving
some people's work, as I hope everyone to help me, fixing any errors
on this music. Thanks a lot and peace everyone!
	Fernando
	e-mail : jcreule@centroin.com.br

riffs:
   	   E B G  D A E 
       F  x x 10 10 8 x
       G# x x x   6 6 4
       D# x x  8  8 6 x
       A# x x x   8 8 6

Intro:

	F G# D# A#  (twice)

-|-------------|-------------|--------------|
-|-------------|-------------|--------------|
-|--------9/10-|-------7/8---|-------8-10---|
-|-8/10--------|-5/6---------|-3/5--------8-|
-|------8------|-----6-------|-----6--------|
-|-------------|-------------|--------------|

Only Bass (same notes)

F           G#         D#                 A#
Maybe in another life, I could find you there...(and so it goes...)

Refrain:
Distortion Guitar (same riffs)
	
And it feels...and it feels like, heaven's so far away.
And it seems...and it seems like, world has grown cold, now that
you've gone away.

End of refrain.

Putting flowers on your grave, show that I still care...(etc.)

Distortion guitar:

|------8-----|-----6-----|-----6-------|-----------|  The rest of this "background" 
|------------|-----------|-------------|-----------|  solo I still couldn't figure
|---10-------|---8-------|---8---------|-----------|  it out.
|-10---------|-8---------|-6-----------|-----------|
|------------|-----------|-------------|-----------|
|------------|-----------|-------------|-----------|

	I reach to the sky, and call out your name.
	And if I could trade, I would.

Refrain.

	Well, it seems a little bit confusing 'cause I'm not used to write
tablatures, and I hope people help me, fixing this thing!!
	Peace.

---------------------------------
   "Gone Away"

   INTRO   Riff A      Riff B
   E|--------------|---------------------------------------------------------|
   B|--------------|---------------------------------------------------------|
   G|---10-13-8----|---------------------------------------------------------|
   D|---10-13-8-8--|------------15------------13--------13---13/15-----------|
   A|---8--11-6-8--|--13/15\13-----11/13\11-----11/13\11-----------13---15\--|
   E|-----------6--|---------------------------------------------------------|
    Riff C     PART 1    PART 2 (Added only on first time)
   E|-------------------|----------------------------|
   B|-------------------|----------------------------|*
   G|---------17------15|----------------------------| Might be missing a few
   D|------17-------15--|-----15---15--15/18----15---| notes here (?)
   A|---15-------13-----|--13----13-----------18-----|
   E|-------------------|----------------------------|
     
     
     VERSE 1
     Maybe in another life, I could find you there
     Pulled away before your time, I can't deal, it's so unfair, 
     Riff A
     And it feels, and it feels like heaven's so far away
     And it feels, yeah it feels like, the world has grown cold, 
        now that you've gone away.
     VERSE 2
     Leaving flowers on your grave, to show that I still care
     But black roses and hail mary's, can't bring back, what's taken from me
      Riff C
      I reach, to the sky, and call out your name
      And if, I could trade, I would
      Riff A
      And it feels, and it feels like, heaven is so far away
      And it stings, yeah, it stings now, the world is so cold, 
         now that you've gone away
      Riff A Clean w/Riff B
      Riff A Distorted
      Riff C
      I reach, to the sky, and call out your name
      And if, I could trade, I would
      Riff A
      And it feels, and it feels like, heaven is so far away
      And it feels, yeah it feels like, the world is so cold, 
          now that you've gone away



------------------------
Gone Away by Offspring
Tabbed by Chris Fargis 
This is the main part...repeated throughout the song

e:---------------------------------------------------------------------------|
B:---------------------------------------------------------------------------|
G:--10-10-10-10-10-10-10-10-------------------------8--8--8--8--8--8--8--8---|
D:--10-10-10-10-10-10-10-10-6--6--6--6--6--6--6--6--8--8--8--8--8--8--8--8---|
A:--8--8--8--8--8--8--8--8--6--6--6--6--6--6--6--6--6--6--6--6--6--6--6--6---|
E:--------------------------4--4--4--4--4--4--4--4---------------------------|

e:--------------------------|
B:--------------------------|
G:--------------------------|
D:--8--8--8--8--8--8--8--8--|
A:--8--8--8--8--8--8--8--8--|
E:--6--6--6--6--6--6--6--6--|



The main part usually ends with 

e:--------|
B:--------|
G:--------|
D:3-------|
A:3-------|
E:1-------|

I took this first riff from the tab at Delirium's Offspring page

after intro
e|---------------------------------------------------------------|
B|---------------------------------------------------------------|
G|-----------10-------------8------------8--10---3-3----3-H-5----|
D|-8-H-10--------5-H-6---------3-H-5---------------------------3-|
A|---------8-------------6------------6--------------------------|
E|---------------------------------------------------------------|


I figured the other riff in the song:

e:-----------------------------------------------|
B:-------13--------11-------11-----------9-8-----|
G:----10---------8--------8------10----------8-10|
D:-10---------10--------8-----------8-10---------|
A:-----------------------------------------------|
E:-----------------------------------------------|


                        
The second time through the riff end with this:

p.m.--------------------->

e:----------------------|
B:----------------------|
G:----------------------|
D:8--8--8--8--8--8--8--8|
A:8--8--8--8--8--8--8--8|
E:6--6--6--6--6--6--6--6|

-----------------------
Gone Away by Offspring
From the album Ixnay on the Hombre

Standard Tuning

Intro: Drum Solo

Then play this riff 2x
w/ distortion

e|-8--8--8--8--8--8--8--8--4-4-4-4-4-4-4-4-6-6-6-6-6-6-6-6-6-6-6-6-6-6-6-6--|
B|-8--8--8--8--8--8--8--8--4-4-4-4-4-4-4-4-6-6-6-6-6-6-6-6-6-6-6-6-6-6-6-6--|
G|-10-10-10-10-10-10-10-10-5-5-5-5-5-5-5-5-8-8-8-8-8-8-8-8-7-7-7-7-7-7-7-7--|
D|-10-10-10-10-10-10-10-10-6-6-6-6-6-6-6-6-8-8-8-8-8-8-8-8-8-8-8-8-8-8-8-8--|
A|-8--8--8--8--8--8--8--8--6-6-6-6-6-6-6-6-6-6-6-6-6-6-6-6-8-8-8-8-8-8-8-8--|
E|-------------------------4-4-4-4-4-4-4-4-----------------6-6-6-6-6-6-6-6--|

Then play this riff 1x
w/ distortion
[ Tab from: http://www.guitartabs.cc/tabs/o/offspring/gone_away_tab_ver_4.html ]
e|----------------------------------------------|
B|----------------4-------4-6\------------------|
G|-------10-------------------------------------|
D|---10---------------8--------8-8-8-10\3-------|
A|-8----8-----6-----6---6-----------------------|
E|----------4---4-------------------------------|

Verse (Maybe in another life...)
Drums and Bass Only

Chorus (And it feels like...)
Play this riff 4x
w/ distortion

e|-8--8--8--8--8--8--8--8--4-4-4-4-4-4-4-4-6-6-6-6-6-6-6-6-6-6-6-6-6-6-6-6--|
B|-8--8--8--8--8--8--8--8--4-4-4-4-4-4-4-4-6-6-6-6-6-6-6-6-6-6-6-6-6-6-6-6--|
G|-10-10-10-10-10-10-10-10-5-5-5-5-5-5-5-5-8-8-8-8-8-8-8-8-7-7-7-7-7-7-7-7--|
D|-10-10-10-10-10-10-10-10-6-6-6-6-6-6-6-6-8-8-8-8-8-8-8-8-8-8-8-8-8-8-8-8--|
A|-8--8--8--8--8--8--8--8--6-6-6-6-6-6-6-6-6-6-6-6-6-6-6-6-8-8-8-8-8-8-8-8--|
E|-------------------------4-4-4-4-4-4-4-4-----------------6-6-6-6-6-6-6-6--|

2nd Verse (Leaving flowers on your grave...)
Play this chord and let ring ...

e|--1--|
B|--1--|
G|--2--|
D|--3--|
A|--3--|
E|--1--|

Bridge (I reach to the sky...)
Play this riff 1x
w/ distortion

e|-----8-----4----6-------------------|
B|----------------------6-------------|
G|------------------------------------|
D|--10-----6----8-----8---8-----------|
A|-8------6----6-----8-----8----------|
E|-------4----------6-------6---------|

e|------8-----4----6-6-6-6-6-6-6-6-6---------------------------|
B|-------------------6-6-6-6-6-6-6-6---------------------------|
G|----10-------------7-7-7-7-7-7-7-7---------------------------|
D|--10------6----8---8-8-8-8-8-8-8-8---------------------------|
A|-8-------6----6----8-8-8-8-8-8-8-8---------------------------|
E|--------4----------6-6-6-6-6-6-6-6---------------------------|

Chorus 
Play this riff 4x
w/ distortion

e|-8--8--8--8--8--8--8--8--4-4-4-4-4-4-4-4-6-6-6-6-6-6-6-6-6-6-6-6-6-6-6-6--|
B|-8--8--8--8--8--8--8--8--4-4-4-4-4-4-4-4-6-6-6-6-6-6-6-6-6-6-6-6-6-6-6-6--|
G|-10-10-10-10-10-10-10-10-5-5-5-5-5-5-5-5-8-8-8-8-8-8-8-8-7-7-7-7-7-7-7-7--|
D|-10-10-10-10-10-10-10-10-6-6-6-6-6-6-6-6-8-8-8-8-8-8-8-8-8-8-8-8-8-8-8-8--|
A|-8--8--8--8--8--8--8--8--6-6-6-6-6-6-6-6-6-6-6-6-6-6-6-6-8-8-8-8-8-8-8-8--|
E|-------------------------4-4-4-4-4-4-4-4-----------------6-6-6-6-6-6-6-6--|

Interlude
Play these chords and let ring...
Clean (No distortion)

e|-1--4--6--6-6-6-6--6-6-6------|
B|-1--4--6--6-6-6-6--6-6-6------|
G|-2--5--8--8-8-8-7--7-7-7------|
D|-3--6--8--8-8-8-8--8-8-8------|
A|-3--6--6--6-6-6-8--8-8-8------|
E|-1--4-----------6--6-6-6------|

Then play this riff 1x
w/ distortion

e|-------------------------------6-6-6-6-6-6-6-6-6-6-6-6-6-6-6--|
B|----------------4-------4-6\---6-6-6-6-6-6-6-6-6-6-6-6-6-6-6--|
G|-------10----------------------7-7-7-7-7-7-7-7-7-7-7-7-7-7-7--|
D|---10---------------8--------8-8-8-8-8-8-8-8-8-8-8-8-8-8-8-8--|
A|-8----8-----6-----6---6--------8-8-8-8-8-8-8-8-8-8-8-8-8-8-8--|
E|----------4---4----------------6-6-6-6-6-6-6-6-6-6-6-6-6-6-6--|


Chorus
Play this riff 2x
w/ distortion

e|-8--8--8--8--8--8--8--8--4-4-4-4-4-4-4-4-6-6-6-6-6-6-6-6-6-6-6-6-6-6-6-6--|
B|-8--8--8--8--8--8--8--8--4-4-4-4-4-4-4-4-6-6-6-6-6-6-6-6-6-6-6-6-6-6-6-6--|
G|-10-10-10-10-10-10-10-10-5-5-5-5-5-5-5-5-8-8-8-8-8-8-8-8-7-7-7-7-7-7-7-7--|
D|-10-10-10-10-10-10-10-10-6-6-6-6-6-6-6-6-8-8-8-8-8-8-8-8-8-8-8-8-8-8-8-8--|
A|-8--8--8--8--8--8--8--8--6-6-6-6-6-6-6-6-6-6-6-6-6-6-6-6-8-8-8-8-8-8-8-8--|
E|-------------------------4-4-4-4-4-4-4-4-----------------6-6-6-6-6-6-6-6--|

Bridge 
Play this riff 1x
w/ distortion

e|-----8-----4----6-------------------|
B|----------------------6-------------|
G|------------------------------------|
D|--10-----6----8-----8---8-----------|
A|-8------6----6-----8-----8----------|
E|-------4----------6-------6---------|

e|------8-----4----6-6-6-6-6-6-6-6-6---------------------------|
B|-------------------6-6-6-6-6-6-6-6---------------------------|
G|----10-------------7-7-7-7-7-7-7-7---------------------------|
D|--10------6----8---8-8-8-8-8-8-8-8---------------------------|
A|-8-------6----6----8-8-8-8-8-8-8-8---------------------------|
E|--------4----------6-6-6-6-6-6-6-6---------------------------|

Chorus
Play this riff 5x
w/ distortion

e|-8--8--8--8--8--8--8--8--4-4-4-4-4-4-4-4-6-6-6-6-6-6-6-6-6-6-6-6-6-6-6-6--|
B|-8--8--8--8--8--8--8--8--4-4-4-4-4-4-4-4-6-6-6-6-6-6-6-6-6-6-6-6-6-6-6-6--|
G|-10-10-10-10-10-10-10-10-5-5-5-5-5-5-5-5-8-8-8-8-8-8-8-8-7-7-7-7-7-7-7-7--|
D|-10-10-10-10-10-10-10-10-6-6-6-6-6-6-6-6-8-8-8-8-8-8-8-8-8-8-8-8-8-8-8-8--|
A|-8--8--8--8--8--8--8--8--6-6-6-6-6-6-6-6-6-6-6-6-6-6-6-6-8-8-8-8-8-8-8-8--|
E|-------------------------4-4-4-4-4-4-4-4-----------------6-6-6-6-6-6-6-6--|

Outro
Play this riff 1x (16th notes)
w/ distortion

e|-6-6-6-6-6-6-6-6-6-6-6-6-6-6-6-6-----|
B|-6-6-6-6-6-6-6-6-6-6-6-6-6-6-6-6-----|
G|-7-7-7-7-7-7-7-7-7-7-7-7-7-7-7-7-----|
D|-8-8-8-8-8-8-8-8-8-8-8-8-8-8-8-8-----|
A|-8-8-8-8-8-8-8-8-8-8-8-8-8-8-8-8-----|
E|-6-6-6-6-6-6-6-6-6-6-6-6-6-6-6-6-----|

End on this chord, let ring, w/ feedback

e|--1--|
B|--1--|
G|--2--|
D|--3--|
A|--3--|
E|--1--|

--------------------------
ALBUM: Ixnay On The Umbray
SONG:Gone Away  
GROUP:The Offspring

This song didn't take very long to figure out.  This is basically how it goes throughout the entire song.  

E-----------------------------------------------------------------------------------------------------
B-----------------------------------------------------------------------------------------------------
G--10---10----10---10---10---10----10----10---10----13---13---13---13---13---13---13---13---13--------
D--10---10----10---10---10---10----10----10---10----13---13---13---13---13---13---13---13---13--------
A----8-----8-----8-----8-----8-----8-----8-----8-----8-----11---11---11---11---11---11---11---11---11-
E-----------------------------------------------------------------------------------------------------

E-----------------------------------------------------------------------------------
B-----------------------------------------------------------------------------------
G-----------------------------------------------------------------------------------
D--13---13---13---13---13---13---13---13---13-----8---8---8---8---8---8---8---8---8-
A--13---13---13---13---13---13---13---13---13-----8---8---8---8---8---8---8---8---8-
E--11---11---11---11---11---11---11---11---11-----6---6---6---6---6---6---6---6---6-


Transcibed by Bobby McIvor
This is the tab for "Gone Away" it sounds pretty good no timing so you
might want to add that in but this is the whole song. H means hammer on
and S means slide this also most of the time the full barre chord is not
strummed just the power chord part but it is some times.
           |-4-|    |---|    |-6-|
|----|     |-4-|    |---|    |-6-| Chorus and intro
|-10-|     |-5-|    |-8-|    |-7-|
|-10-| x8  |-6-| x8 |-8-| x8 |-8-| x8 lightly strum each chord and let
|-8--|     |-6-|    |-6-|    |-8-|    ring during the verse
|----|     |-4-|    |---|    |-6-|

  after intro
|---------------------------------------------------------------|
|---------------------------------------------------------------|
|-----------10-------------8------------8--10---3-3----3-H-5----|
|-8-H-10--------5-H-6---------3-H-5---------------------------3-|
|---------8-------------6------------6--------------------------|
|---------------------------------------------------------------|

"I reach to the sky" part
|------8-------6-----6-----------------|
|----6-------4-----4-----4-4-S-9-8-4-6-|
|-5--------3-----3-----3---------------|
|--------------------------------------|
|--------------------------------------|
|--------------------------------------|


--------------------------
        Title : Gone Away
        Artist : Offspring
        Album : Ixnay On The Hombre

Legend
------
 h  = hammer-on
p  = pull-off
B  = bend
r  = bend release
/  = slide up/down
<5> = natural harmonic
[5] = artifical harmonic
~  = vibrato
tr = trill

Chord Diagrams (low to high)
----- --------
         F  Bb Eb Ab C  F
E        X  7  9  9  9  X
G        3  5  5  4  X  X
D        X  5  7  7  7  X
A        5  7  7  6  X  X
E5type1  0  2  2  X  X  X
Eopen    0  2  2  1  0  0
Gopen    3  2  0  0  0  3
Dopen    X  X  0  2  3  2
Aopen    X  0  2  2  2  0
A5type1  X  0  2  2  X  X
E5type2  X  X  9  9  12 12
G(triad) X  X  12 12 12 X
D5type1  X  X  7  7  X  10
A5type2  X  X  7  9  10 X
E5type3  X  X  9  9  X  7
Gadd9    X  X  9  7  10 X
D5type2  X  X  7  7  X  5
A5type3  X  7  7  X  5  X

    E5type2                 G(triad)                D5type1
F |-12-12-12-12-12-12-12/-|-----------------------|-10-10-10-10-10-10-10--|
C |-12-12-12-12-12-12-12/-|-12-12-12-12-12-12-12\-|-10-10-10-10-10-10-10--|
Ab|--9--9--9--9--9--9--9/-|-12-12-12-12-12-12-12\-|--7--7--7--7--7--7--7--|
Eb|--9--9--9--9--9--9--9/-|-12-12-12-12-12-12-12\-|--7--7--7--7--7--7--7--|
Bb|-----------------------|-----------------------|-----------------------|
F |-----------------------|-----------------------|-----------------------|
    Rhy. Fig. 1 - Gtr. 1

    A5type2
F |-------------------------|
C |-10-10-10-10-10-10-10-10-|
Ab|--9--9--9--9--9--9--9--9-|
Eb|--7--7--7--7--7--7--7--7-|
Bb|-------------------------|
F |-------------------------|

    E                 G                 D                 A
F |-----------------|-----------------|-----------------|-----------------|
C |-9-9-9-9-9-9-9-9-|-----------------|-7-7-7-7-7-7-7-7-|-----------------|
Ab|-9-9-9-9-9-9-9-9-|-4-4-4-4-4-4-4-4-|-7-7-7-7-7-7-7-7-|-6-6-6-6-6-6-6-6-|
Eb|-9-9-9-9-9-9-9-9-|-5-5-5-5-5-5-5-5-|-7-7-7-7-7-7-7-7-|-7-7-7-7-7-7-7-7-|
Bb|-7-7-7-7-7-7-7-7-|-5-5-5-5-5-5-5-5-|-5-5-5-5-5-5-5-5-|-7-7-7-7-7-7-7-7-|
F |-----------------|-3-3-3-3-3-3-3-3-|-----------------|-5-5-5-5-5-5-5-5-|
    Rhy. Fig. 1A - Gtr. 2

F |-------------|--------------|---------------|------------|-------------|
C |-------------|--------------|---------------|------------|-------------|
Ab|-2h4--/9-----|------/7------|------/7---9\6-|------------|-------------|
Eb|-----2-------|-4h5-0--------|-2h4-0---------|-7---7---9\-|-2-----------|
Bb|-------------|--------------|---------------|------------|-------------|
F |-------------|--------------|---------------|------------|-------------|
    Riff 1 - Gtr. 1 - w/ Chorus pedal

    E5type1
F |----------|------------|-------------|------------|
C |----------|------------|-------------|------------|
Ab|----------|------------|-------------|------------|
Eb|-2--------|-(2)--------|-(2)---------|-(2)--------|
Bb|-2--------|-(2)--------|-(2)---------|-(2)--------|
F |-0--------|-(0)--------|-(0)---------|-(0)--------|
    Gtr. 2

    E5type3       Gadd9            D5type2           A5type3
F |-------7-----|-(7)------------|-----------5-----|----------------------|
C |-------------|---------10-----|-(10)------------|-5-----7b8--7h8p7-----|
Ab|-----9-------|-------7--------|--------7--------|------------------7/9-|
Eb|---9---------|-----9----------|------7----------|-----7----------------|
Bb|-------------|----------------|-----------------|---7------------------|
F |-------------|----------------|-----------------|----------------------|
    Rhy. Fig. 2 - Gtr. 1

    E5type3         Gadd9           D5type2           A5type1
F |-------7-----|-(7)------------|-----------5----0-|-----------------|
C |-------------|---------10-----|-(10)-----------0-|-----------------|
Ab|-9---9-------|-------7--------|--------7---------|-2-2-2-2-2-2-2-2-|
Eb|---9---------|-----9----------|------7-----------|-2-2-2-2-2-2-2-2-|
Bb|-------------|----------------|------------------|-0-0-0-0-0-0-0-0-|
F |-------------|----------------|------------------|-----------------|
Lyrics:
-- w/ last bar of Riff 1
Maybe in another life
I could find you there
Blown away before your time
I can't deal
It's so unfair
-- w/ Rhy. Fig. 1A, 2 times
And It feels,And It feels
like heaven is so far away
And it feels, and it feels
like the world is so cold
now that you've gone away
Interlude -- Rhy. Figs. 1 & 1A, 2 times
-- w/ E5type1, 4 bars
Leaving flowers on your grave
to show that i still care
cant bring back
whats taken from me
-- w/ Rhy. Fig. 2
I reach to the sky
and call out your name
and if I could trade I would
-- w/ Rhy. Fig. 1A, 4 times
And It feels, And It feels
like heaven is so far away
And it stinks, and it stinks
now the world is so cold
now that you've gone away
-- w/ Rhy. Fig. 2
I reach to the sky
and call out your name
and if I could trade I would
-- w/ Rhy. Fig. 1A, 5 times
And It feels, And It feels
like heaven is so far away
And it feels, and it feels
like the world is so cold
now that you've gone away

Then end with this:
    Atype2                    E5
F |-------------------------|-----------------|
C |-10-10-10-10-10-10-10-10-|-----------------|
Ab|--9--9--9--9--9--9--9--9-|-----------------|
Eb|--7--7--7--7--7--7--7--7-|-2---------------|
Bb|-------------------------|-2---------------|
F |-------------------------|-0---------------|

Comments