Offspring - Gone Away Chords & Tabs

 

Gone Away Chords & Tabs

Offspring Chords & Tabs

Version: 2 Type: Tab 1 rating
1 star 2 stars 3 stars 4 stars 5 stars
comments

Gone Away Tab

Artist: Offspring
Song: Gone Away
Tabbed by: John Leadman

 
H means hammer on and S means slide this also most of the time the full barre chord is not
strummed just the power chord part but it is some times.

           |-4-|    |---|    |-6-|
|----|     |-4-|    |---|    |-6-| Chorus and intro
|-10-|     |-5-|    |-8-|    |-7-|
|-10-| x8  |-6-| x8 |-8-| x8 |-8-| x8 lightly strum each chord and let 
|-8--|     |-6-|    |-6-|    |-8-|    ring during the verse
|----|     |-4-|    |---|    |-6-|
[ Tab from: http://www.guitartabs.cc/tabs/o/offspring/gone_away_tab_ver_2.html ]
  after intro
|---------------------------------------------------------------|
|---------------------------------------------------------------|
|-----------10-------------8------------8--10---3-3----3-H-5----|
|-8-H-10--------5-H-6---------3-H-5---------------------------3-|
|---------8-------------6------------6--------------------------|
|---------------------------------------------------------------|

"I reach to the sky" part
|------8-------6-----6-----------------|
|----6-------4-----4-----4-4-S-9-8-4-6-|
|-5--------3-----3-----3---------------|
|--------------------------------------|
|--------------------------------------|
|--------------------------------------|



Comments