Offspring - Gone Away Chords & Tabs

 

Gone Away Chords & Tabs

Offspring Chords & Tabs

Version: 3 Type: Bass Tab 0 ratings
1 star 2 stars 3 stars 4 stars 5 stars
comments

Gone Away Bass Tab

-------------------------------------------------------------------------------
			     Offspring - Gone Away
-------------------------------------------------------------------------------

Tabbed By : Claire
e-mail: sherb47@hotmail.com

I know that this isn't how the song is actually played but, the bass should fit
in with the bass drum. I worked this out and it does fit the bass drum and still
fits in with the song.To get the timing, you need to listen to the bass drum and
just try to fit it in.


Tuning: standard
[ Tab from: http://www.guitartabs.cc/tabs/o/offspring/gone_away_btab_ver_3.html ]
intro/chorus
G|---------------------------------------------------------------------------|
D|-3-3---3-3-----------------------------------------------------------------|
A|-----3-----------6-------6-6---6-6--------4--------------------------------|X2
E|-------------4-4---4-4-------6--------6-6---6-6----------------------------|

verse
G|---------------------------------------------------------------------------|
D|---------------------------------------------------------------------------|
A|-------------------------3--6-6--6-6-6-------------------------------------|
E|1-1--1-1-1-3--4-4--4-4-4-----------------6-6--6-6-6-----------------------

ending/bridge
G|---------------------------------------------------------------------------|
D|---------------------------------------------------------------------------|
A|---------------------------------------------------------------------------|
E|6-6-6-6-6-6-6-6-1----------------------------------------------------------|


intro X 2
verse X 3
chorus X 3
verse X 4
chorus X 4
bridge
chorus X 2
verse X 2
chorus X 5
ending
Comments