Offspring - Gone Away Chords & Tabs

 

Gone Away Chords & Tabs

Offspring Chords & Tabs

Version: 1 Type: Bass Tab 0 ratings
1 star 2 stars 3 stars 4 stars 5 stars
comments

Gone Away Bass Tab

   
Band: Offspring
Song: Gone Away
Album: Ixnay On The Hombre
Tabed By: Donald Ruddell (BassGod425@hotmail.com)

Intro/Chorus:
G|-----------------------------------------------------------------|
D|-3-3-3-3-3-3-3-3-------------------------------------------------|
A|---------------------------------6-6-6-6-6-6-6-6-----------------|
E|-----------------4-4-4-4-4-4-4-4-----------------6-6-6-6-6-6-6-6-|

[ Tab from: http://www.guitartabs.cc/tabs/o/offspring/gone_away_btab.html ]
Verse:
G|---------------------------------------------------------------------|
D|---------------------------------------------------------------------|
A|-----------------------------------3-6-6-6-6-6-6-6-6-----------------|
E|-1-1-1-1-1-1-1-1-3-4-4-4-4-4-4-4-4-------------------6-6-6-6-6-6-5-4-|


Ending:
G|-------------------|
D|-------------------|
A|-------------------|
E|-6-6-6-6-6-6-6-6-1-|

Comments