Offspring - Getting Away Chords & Tabs

 

Getting Away Chords & Tabs

Offspring Chords & Tabs

Version: 1 Type: Tab 0 ratings
1 star 2 stars 3 stars 4 stars 5 stars
comments

Getting Away Tab

#----------------------------------PLEASE NOTE---------------------------------#
#This file is the author's own work and represents their interpretation of the #
#song. You may only use this file for private study, scholarship, or research. #
#------------------------------------------------------------------------------#
Offspring: Getting Away
Tabber: Unknown

Intro (guitar 1 & 2 w/dist.)

e|-----------------------------------------------------------|
B|---------8--x--8--7\\5------------------8--x--8--10\\5-----|
G|-7*--7*--7--x--7--7\\4----------7*--7*--7--x--7---7\\4-----|
D|-----------------------------------------------------------|  x2
A|-----------------------------------------------------------|
E|-----------------------------------------------------------|
  *=Harmonic

e|----------------------------------------------------------------------------
B|----------------------------------------------------------------------------
G|-------7--7--------7--7--------9--9--------9--9--------12--12--------14--14-
D|-------7--7--------7--7--------9--9--------9--9--------12--12--------14--14-
A|-------5--5--------5--5--------7--7--------7--7--------10--10--------12--12-
E|-0--0--------0--0--------0--0--------0--0--------0--0----------0--0---------

e|------------------------|
B|------------------------|
G|-9--9--10--9--10--9--9--|
D|-9--9---9--9---9--9--9--|
A|-7--7---7--7---7--7--7--|
E|------------------------|

Verses (guitar 1 w/dist.)
[ Tab from: http://www.guitartabs.cc/tabs/o/offspring/getting_away_tab.html ]
e|----------------------------------------------------------------------------
B|----------------------------------------------------------------------------
G|-------7--7--------7--7--------9--9--------9--9--------12--12--------14--14-
D|-------7--7--------7--7--------9--9--------9--9--------12--12--------14--14-
A|-------5--5--------5--5--------7--7--------7--7--------10--10--------12--12-
E|-0--0--------0--0--------0--0--------0--0--------0--0----------0--0---------
p.m....        ....        ....        ....        ....          ....
  'Getting     edgy    

(both guitars w/dist.)

e|------------------------|
B|------------------------|
G|-9--9--10--9--10--9--9--|
D|-9--9---9--9---9--9--9--|
A|-7--7---7--7---7--7--7--|
E|------------------------|
     step   behind.'

Chorus (both guitars w/dist.)

e|--------------------------------------------------------------
B|--------------------------------------------------------------
G|--9-----9--------------------12--12--12--12-------------------
D|--9-----9---10--10--10--10---12--12--12--12---12--12--12--12--
A|--7-----7---10--10--10--10---10--10--10--10---12--12--12--12--
E|-------------8---8---8---8--------------------10--10--10--10--
  'Sitting   on   the   bed   

e|--------------------------------------------------------------|
B|--------------------------------------------------------------|
G|--9-----9--------------------12--12--12--12-------------------|
D|--9-----9---10--10--10--10---12--12--12--12---12--12--12--12--|
A|--7-----7---10--10--10--10---10--10--10--10---12--12--12--12--|
E|-------------8---8---8---8--------------------10--10--10--10--|
   demons   in  my head  ..........................

End on

e|----|
B|----|
G|----|
D|-2--|
A|-2--|
E|-0--|

Any requests from Smash, Americana or Conspiracy Of One e-mail me:
martynmc7@aol.com
Comments