Offspring - Genocide Chords & Tabs

 

Genocide Chords & Tabs

Offspring Chords & Tabs

Version: 6 Type: Tab 0 ratings
1 star 2 stars 3 stars 4 stars 5 stars
comments

Genocide Tab

Genocide Tab by Offspring

http://www.guitartabsonline.20fr.com/

Artist: The Offspring
Song: Genicide
Album: Smash
Tunning: Standard

INTRO guitar1
E------------|
B------------|
G---------5--|x2
D---5--3--5--|
A---5--3--3--|
E---3--1-----|

after guitar2 plays riff2 and guitar 1 continues with intro: (riff1) (00:11)
------------------------------------------------------------------------------|
------------------------------------------------------------------------------|
12-12--12--15-14-15-17-17-15--14--10--10-14-14/15\14--5-5-5-9-7-9-9/10\9-7-9--|
------------------------------------------------------------------------------|
------------------------------------------------------------------------------|


(00:35) (00:47)
pre chorus1: chorus:
E-------|---------------------------|
B-------|---------------------------|
G---12--|---------10--5-------------|(then riff1 enters)
D---12--|---5-8---10--5-------------|
A---10--|---5-8---8---3-------------|
E-------|---3-6---------------------|

then verse2:
(01:22)
E------------|
B------------|
G---------5--|
D---5--3--5--|
A---5--3--3--|
E---3--1-----|
[ Tab from: http://www.guitartabs.cc/tabs/o/offspring/genocide_tab_ver_6.html ]
(01:34) (01:40)
pre chorus1: chorus:
E--------|------------------------------------|
B--------|------------------------ (00:59-----|
G-10--5--|---------10--5----------------------|(then riff1 enters)
D-10--5--|---5-8---10--5----------------------|
A-8---3--|---5-8---8---3----------------------|
E--------|---3-6------------------------------|

after 2nd chorus:
interlude:
(02:04)
E--------------------------------------------|
B--------------------------------------------|
G--------------------------------------------|
D-----5----5----5----5----8----8----8----8---|
A-----5----5----5----5----8----8----8----8---|
E---3----3----3----3----6----6----6----6-----|

-----------------------------------------------|
-----------------------------------------------|
--10----10---10---10---5----5---5-----5--------| x7
--10----10---10---10---5----5---5-----5--------|
-8----8----8----8----3----3----3----3----------|
-----------------------------------------------|

chorus: (02:39)
E-------------------------------------|
B----------------------- (02:51-------|
G---------10--5-----------------------|(then riff2 enters)
D---5-8---10--5-----------------------|
A---5-8---8---3-----------------------|
E---3-6-------------------------------|

ending:

E------------------|
B------------------|
G--5-5-5-5-7-------|
D--5-5-5-5-7-------|
A--3-3-3-3-5-------|
E------------------|
Comments