Offspring - Genocide Chords & Tabs

 

Genocide Chords & Tabs

Offspring Chords & Tabs

Version: 2 Type: Tab 0 ratings
1 star 2 stars 3 stars 4 stars 5 stars
comments

Genocide Tab

GENOCIDE by The Offspring. Album: The Offspring - Smash (1994)
This song has a nice solo and intro. This is also very easy to play and sing
at the same time. Okay, nothing else to say - Go ahead. Make my day!
:
# intro #   X 4   (also during the solo)     m=mute
E-----------------------------------------------------------|
B-----------------------------------------------------------|
G---------------------------------------------5-5-5--5--5---|
D---5-5-5--5--5---5-5-5--5--5---3-3-3--3--3---5-5-5--5--5---|
A---5-5-5--5--5---5-5-5--5--5---3-3-3--3--3---3-3-3--3--3---|
E---3-3-3--3--3---3-3-3--3--3---1-1-1--1--1-----m-m---------|
:     m m           m m           m m
:
# solo #    X 2
E---6-6--6-5-5-6-6-8-8-6--6-6-5---5--6--6-6-5-----------------|
B-------------------------------6---------------5--6--5\3/5---|
G---------------------------------------------5---------------|
D-------------------------------------------------------------|
A-------------------------------------------------------------|
E-------------------------------------------------------------|
:
# end-verse #     X 7                 # pre-chorus #   (one, two...)
E--------------------|                E----------------|
B--------------------|                B----------------|
G---0-0-0-0--0-0-0---|                G---5--5--5--5---|
D--------------------|                D---5--5--5--5---|
A--------------------|                A---3--3--3--3---|
E--------------------|                E----------------|
:                                   (Our time is up!)       (one, two...)
# chorus #  X 2   *=play 7X         # end-verse2 #        # pre-chorus2 #
E-------------------|               E-------------|       E----------------|
B------------*------|               B-------------|       B----------------|
G----*---*-10----*--| >Then play    G---8---8-5---|       G---5--5--7--7---|
D---5---8--10--10---|  intro or     D---8---8-5---|  >>>  D---5--5--7--7---|
A---5---8---8--10---|  solo and     A---6---6-3---|       A---3--3--5--5---|
E---3---6-------8---|  intro>       E-------------|       E----------------|
:
Play chorus X2 or solo.
:
# bridge #      X 7    (last time without muting)     
E----------------------------------------------------------------------------|
B----------------------------------------------------------------------------|
G----------------------------------------------------------------------------|
D---------------------------------------10---10---10---10--------------------|
A-----5---5---5---5----8---8---8---8--8----8----8----8------10---10---10---10|
E---3---3---3---3----6---6---6---6------------------------8----8----8----8---|
:   \__________________________palm-muted___________________________________/
:
# bridge2 #        (over bridge)
E-------------------------------------------|
B-------------------------------------------|
G----------------------10-10----------------|
D---5-5-----5-5---8-8--10-10--10-10---5-5---|
A---5-5-----5-5---8-8---8--8--10-10---5-5---|
E---3-3-----3-3---6-6----------8--8---3-3---|
:   \____________palm-mute____________/

[ Tab from: http://www.guitartabs.cc/tabs/o/offspring/genocide_tab_ver_2.html ]
Comments