Offspring - Genocide Chords & Tabs

 

Genocide Chords & Tabs

Offspring Chords & Tabs

Version: 2 Type: Bass Tab 0 ratings
1 star 2 stars 3 stars 4 stars 5 stars
comments

Genocide Bass Tab

Song Title: Genocide
Artist: Offspring
----------------------------------------------

Best viewed using Courier New font

The Offspring - "Genocide" - Bass Tab

Intro:
|-----------|
|*-R-R-R-R-*|
|*---------*|(x8)
|-----------|
   1 2 3 4

|------------------|-----------------|-----------------|
|*-----------------|-----------------|-----------------|
|*-----------------|-----------------|-----------------|
|--3-3-3-3-3-3-3-3-|-3-3-3-3-3-3-3-3-|-1-1-1-1-1-1-1-1-|
   1 & 2 & 3 & 4 &   1 & 2 & 3 & 4 &   1 & 2 & 3 & 4 &

|------------------|
|-----------------*|
|-3-3-3-3-3-3-3-3-*|(x2)
|------------------|

Verse 1:
|----------|---------|---------|----------|
|*---------|---------|---------|---------*|
|*---------|---------|---------|-3-3-3-3-*|(x2)
|--3-3-3-3-|-3-3-3-3-|-1-1-1-1-|----------|
   1 2 3 4   1 2 3 4   1 2 3 4   1 2 3 4 
[ Tab from: http://www.guitartabs.cc/tabs/o/offspring/genocide_btab_ver_2.html ]
|------------|-----------|-----------|------------|
|*---5-5-5-5-|---5-5-5-5-|---3-3-3-3-|-----------*|
|*-3---------|-3---------|-1---------|---3-3-3-3-*|(x2)
|------------|-----------|-----------|-1----------|
    a 1 2 3 4   a 1 2 3 4   a 1 2 3 4   a 1 2 3 4

Chorus:
|------------------|-----------------|-----------------|
|*-----------------|-----------------|-----------------|
|*-----------------|-----------------|-3-3-3-3-3-3-3-3-|
|--3-3-3-3-3-3-3-3-|-1-1-1-1-1-1-1-1-|-----------------|
   1 & 2 & 3 & 4 &   1 & 2 & 3 & 4 &   1 & 2 & 3 & 4 &

|------------------|
|-----------------*|
|-1-1-1-1-1-1-1-1-*|(x2)
|------------------|

Intro(x2)

Verse 2:
|----------|---------|---------|----------|
|*---------|---------|---------|---------*|
|*---------|---------|---------|-3-3-3-3-*|(x4)
|--3-3-3-3-|-3-3-3-3-|-1-1-1-1-|----------|

Rest(4 bars)

Chorus(x2)

Submitted by:  Jo Taylor (viking@powerup.com.au)
Comments