Offspring - Forever And A Day Chords & Tabs

 

Forever And A Day Chords & Tabs

Offspring Chords & Tabs

Version: 1 Type: Bass Tab 0 ratings
1 star 2 stars 3 stars 4 stars 5 stars
comments

Forever And A Day Bass Tab

intro                                     
G-------------------------------------------------|  
D-----------------33333---------------------------|  
A------55555----------------33333------55555------|  
E-------------------------------------------------|  

verse/chorus 5x    
G------------------3333333------------------------|
D------5555555----3-----------3333333-----5555555-|
A-----5----------------------3-----------5--------|
E-------------------------------------------------|

bridge 2x
G-------7-------------10---------------------------7--|
D-----------------------------------10----------------|
A---5-5----------7-8-8-------8-7-----------8-7-5-5----|
E-----------8-10-----------8-----8-8-----8------------|
[ Tab from: http://www.guitartabs.cc/tabs/o/offspring/forever_and_a_day_btab.html ]
verse/chorus 4x    
G------------------3333333------------------------|
D------5555555----3-----------3333333-----5555555-|
A-----5----------------------3-----------5--------|
E-------------------------------------------------|

bridge
G----3333333---------------------------------------------------------------|
D---3-----------3333333-------33333333-----3333333----1111111-----1111111--|
A--------------3--------1----3------------3----------1-----------1--------3|
E--------------------------------------------------------------------------|

bridge 2x
G-------7-------------10---------------------------7--|
D-----------------------------------10----------------|
A---5-5----------7-8-8-------8-7-----------8-7-5-5----|
E-----------8-10-----------8-----8-8-----8------------|

verse 8x    
G------------------3333333------------------------|
D------5555555----3-----------3333333-----5555555-|
A-----5----------------------3-----------5--------|
E-------------------------------------------------|
Comments