Offspring - Feelings Chords & Tabs

 

Feelings Chords & Tabs

Offspring Chords & Tabs

Version: 2 Type: Tab 1 rating
1 star 2 stars 3 stars 4 stars 5 stars
comments

Feelings Tab

   
ONCE AGAIN I HAVE FOUND A WRONG TAB SO THIS IS THE REAL FEELINGS TAB

THIS MY FAVORITE SONG IN THE WORLD EVER IT ROCKS!

TEMPO:184

TUNING:STANDARD


---------------------------------------------------------------------------
---------------------------------------------------------------------------
-5----5---5--5----5---5--5----5---5--7----7---7--7----7---7--7----7---7----
-7----7---7--6----6---6--5----5---5--4----4---4--3----3---3--5----5---5----
---------------------------------------------------------------------------
---------------------------------------------------------------------------


---------------------------------------------------------------------------------------------
---------------------------------------------------------------------------------------------
--------------------9--9--9---9----9--9--9---9---9--9--9---9--9-9-9-9-9-9-9-9----------------
-7-7-7-7-7-7-7-7----9--9--9---9----9--9--9---9---9--9--9---9--9-9-9-9-9-9-9-9----------------
-7-7-7-7-7-7-7-7----7--7--7---7----7--7--7---7---7--7--7---7--7-7-7-7-7-7-7-7----------------
-5-5-5-5-5-5-5-5-0---------------0-------------0--------------0-0-0-0-0-0-0-0----------------


*
-----------------------------------------------------------------------------------------
-----------------------------------------------------------------------------------------
-----------------------------------------------------------------------------------------
-----------------------------------------------------------------------------------------
-3----3---3--3----3---3--3----3---3--5----5---5--5----5---5--5----5---5--7-7-7-7-7-7-7-7-                
-5----5---5--4----4---4--3----3---3--2----2---2--1----1---1--2----2---2--5-5-5-5-5-5-5-5-

[ Tab from: http://www.guitartabs.cc/tabs/o/offspring/feelings_tab_ver_2.html ]
-------------------------------
-------------------------------   REPEAT FROM *
----9--9--9---9----------------
----9--9--9---9---------------- 
----7--7--7---7----------------
-0-----------------------------



CHORUS:
--------------------------------------------------------0----
--------------------------------------------------------0----
-------5-----7----9-------------------5------7-----4----1----
-3-----5-X16-7-X8-9-X8--7------3------5-X16--7-X8--4-X8-2-X16
-3-X16-3-----5----7-----7-X16--3-X16--3------5-----2----2----
-1----------------------5------1------------------------0----
                                                        *

VERSE 2 SAME AS VERSE 1

CHORUS 2 SAME AS CHORUS 1 BUT THE CHORD WITH * UNDER IT PLAY

------------------------------
-9------10----9---------------
-9------9-----9---------------
-9-X4---9-X4--9-X8------------
-7------7-----7---------------
------------------------------

SOLO:

--------------------------------------------------------------------------------------------20-20-17------
-5--5--5-5--5--5-5-8-5-----------5-13-13-10---17-17-17-17-17-17-17-20-17----------------17----------------
-----------------------5-------5-----------------------------------------17----------17-------------------
-------------------------7-5/7----------------------------------------------19-17/19----------------------
----------------------------------------------------------------------------------------------------------
----------------------------------------------------------------------------------------------------------

PLAY THE CHORUS TWICE AND ON THE SECOND TIME GET SLOWER AND END ON 

----------
----------
----------
-7--------
-7--------
-5--------

THANX FOR READING MY TAB I HOPE ITS OK I'M ONLY 12

R.H.
 @
H.D. 

Comments