Offspring - Feelings Chords & Tabs

 

Feelings Chords & Tabs

Offspring Chords & Tabs

Version: 1 Type: Tab 0 ratings
1 star 2 stars 3 stars 4 stars 5 stars
comments

Feelings Tab

Song: Feelings 
By: The Offspring
The Complete Song 
Email me at pmorrissey03@snet.net
Intro: Guitars 1 and 2
-------------------|------------------|------------------|-------------------|
-------------------|------------------|------------------|-------------------|
-14-x-x-14-14-14-14|13-x-x-13-13-13-13|12-x-x-12-12-12-12|11-x-x-11-11-11-11-|
-14-x-x-14-14-14-14|13-x-x-13-13-13-13|12-x-x-12-12-12-12|11-x-x-11-11-11-11-|
-12-x-x-12-12-12-12|11-x-x-11-11-11-11|10-x-x-10-10-10-10|-9-x-x--9--9--9--9-|
-------------------|------------------|------------------|-------------------|

-------------------|------------------|------------------|-----------------|
-------------------|------------------|------------------|-----------------|
-10-x-x-10-10-10-10|12-x-x-12-12-12-12|------------------|/7\9-9-9-9-9-9-9-|
-10-x-x-10-10-10-10|12-x-x-12-12-12-12|-7----------------|/7\9-9-9-9-9-9-9-|
-8--x-x--8--8--8--8|10-x-x-10-10-10-10|-7----------------|/5\7-7-7-7-7-7-7-|
-------------------|------------------|-5----------------|-----------------|

------------------|------------------|-----------------|
------------------|------------------|-----------------|
-/7\9-9-9-9-9-9-9-|-/7\9-9-9-9-9-9-9-|-9-9-9-9-9-9-9-9-|
-/7\9-9-9-9-9-9-9-|-/7\9-9-9-9-9-9-9-|-9-9-9-9-9-9-9-9-|
-/5\7-7-7-7-7-7-7-|-/5\7-7-7-7-7-7-7-|-7-7-7-7-7-7-7-7-|
------------------|------------------|-----------------|
Verse: Guitars 1 and 2
|---------------|---------------|---------------|---------------|
|---------------|---------------|---------------|---------------|
|---------------|---------------|---------------|---------------|
|-7-x-x-7-7-7-7-|-6-x-x-6-6-6-6-|-5-x-x-5-5-5-5-|-4-x-x-4-4-4-4-|
|-7-x-x-7-7-7-7-|-6-x-x-6-6-6-6-|-5-x-x-5-5-5-5-|-4-x-x-4-4-4-4-|
|-5-x-x-5-5-5-5-|-4-x-x-4-4-4-4-|-3-x-x-3-3-3-3-|-2-x-x-2-2-2-2-|

---------------|---------------|---------------|-----------------|
---------------|---------------|---------------|-----------------|
---------------|---------------|---------------|-9-9-9-9-9-9-9-9-|
-3-x-x-3-3-3-3-|-5-x-x-5-5-5-5-|-7-x-x-7-7-7-7-|-9-9-9-9-9-9-9-9-|
-3-x-x-3-3-3-3-|-5-x-x-5-5-5-5-|-7-x-x-7-7-7-7-|-7-7-7-7-7-7-7-7-|
-1-x-x-1-1-1-1-|-3-x-x-3-3-3-3-|-5-x-x-5-5-5-5-|-----------------|Repeat
1x
Chorus 1: Guitars 1 and 2
|-------------------------|-------------------------|-----------------|
|-------------------------|-------------------------|-----------------|
|-------------------------|-------------------------|-7-7-7-7\9-9-9-9-|
|-10-10-10-10-10-10-10-10-|-10-10-10-10-10-10-10-10-|-7-7-7-7\9-9-9-9-|
|-10-10-10-10-10-10-10-10-|-10-10-10-10-10-10-10-10-|-5-5-5-5\7-7-7-7-|
|-8--8--8--8--8--8--8--8--|-8--8--8--8--8--8--8--8--|-----------------|

-----------------|-------------------------|-------------------------|-
-----------------|-------------------------|-------------------------|-
-----------------|-------------------------|-------------------------|-
-7-7-7-7-7-7-7-7-|-10-10-10-10-10-10-10-10-|-10-10-10-10-10-10-10-10-|-
-7-7-7-7-7-7-7-7-|-10-10-10-10-10-10-10-10-|-10-10-10-10-10-10-10-10-|-
-5-5-5-5-5-5-5-5-|-8--8--8--8--8--8--8--8--|-8--8--8--8--8--8--8--8--|-

-----------------|-----------------|-------------------------|
-----------------|-----------------|-------------------------|
-7-7-7-7-7-7-7-7-|-----------------|-14-14-14-14-14-14-14-13-|
-7-7-7-7-7-7-7-7-|-7-7-7-7-7-7-7-7-|-14-14-14-14-14-14-14-13-|
-5-5-5-5-5-5-5-5-|-7-7-7-7-7-7-7-7-|-12-12-12-12-12-12-12-11-|
-----------------|-5-5-5-5-5-5-5-5-|-------------------------|
                        with Fill 1             Fill 1
Repeat Verse
Chorus 2:
|-------------------------|-------------------------|-----------------|
|-------------------------|-------------------------|-----------------|
|-------------------------|-------------------------|-7-7-7-7\9-9-9-9-|
|-10-10-10-10-10-10-10-10-|-10-10-10-10-10-10-10-10-|-7-7-7-7\9-9-9-9-|
|-10-10-10-10-10-10-10-10-|-10-10-10-10-10-10-10-10-|-5-5-5-5\7-7-7-7-|
|-8--8--8--8--8--8--8--8--|-8--8--8--8--8--8--8--8--|-----------------|

|-----------------|-------------------------|-------------------------|--
|-----------------|-------------------------|-------------------------|--
|-----------------|-------------------------|-------------------------|--
|-7-7-7-7-7-7-7-7-|-10-10-10-10-10-10-10-10-|-10-10-10-10-10-10-10-10-|--
|-7-7-7-7-7-7-7-7-|-10-10-10-10-10-10-10-10-|-10-10-10-10-10-10-10-10-|--
|-5-5-5-5-5-5-5-5-|-8--8--8--8--8--8--8--8--|-8--8--8--8--8--8--8--8--|--
|Guitar 2
|-----------------|-------------------------|-------------------------|--
|-----------------|-------------------------|-------------------------|--
|-----------------|-------------------------|-------------------------|--
|-7-7-7-7-7-7-----|-10-10-10-10-10-10-10-10-|-------------------------|--
|-7-7-7-7-7-7-----|-10-10-10-10-10-10-10-10-|-same as
above-----------|--
|-5-5-5-5-5-5-\\13/-8--8--8--8--8--8--8--8--|-------------------------|--

|-----------------|---------------------------|
|-----------------|---------------------------|
|-7-7-7-7\9-9-9-9-|---------------------------|
|-7-7-7-7\9-9-9-9-|--7--7--7--7--7--7--7--7---|
|-5-5-5-5\7-7-7-7-|--7--7--7--7--7--7--7--7---|
|-----------------|--5--5--5--5--5--5--5--5---|
|
|-----------------|---------------------------|
|-----------------|---------------------------|
|-----------------|-13-13-13-13\14-14-14-14/13|
|-----------------|---------------------------|
|-----------------|---------------------------|
|-----------------|---------------------------|

Solo: Guitar 2
|-----------|-----------|-----------|-----------|-----------|------------|
|-----------|-----------|-----------|-----------|-----------|-10-8-------|
|-9-9-9-9-9-|-9-9-9-9-9-|-9-9-9-9-9-|-9-9-9-9-9-|-9-9-9-9-9-|------7-----|
|-----------|-----------|-----------|-----------|-----------|--------7~~-|
|-----------|-----------|-----------|-----------|-----------|------------|
|-----------|-----------|-----------|-----------|-----------|------------|
[ Tab from: http://www.guitartabs.cc/tabs/o/offspring/feelings_tab.html ]
|-----------|-------------|-----------|------------|------------|------------|
|-----------|-------15h17-|-----------|------------|-17-17-17-17|17-17-17-17-|
|------7h9--|-14h17----17-|17-14~~~~~-|------------|------------|------------|
|-7h10---10-|-------------|-----------|14-14-14-14-|------------|------------|
|-----------|-------------|-----------|------------|------------|------------|
|-----------|-------------|-----------|------------|------------|------------|

|-------------|-------------|-------------|-20br-17--------|
|-17-17-17-17-|-17-17-17-17-|-17-17-17-17-|---------20-17~-|
|-------------|-------------|-------------|----------------|
|-------------|-------------|-------------|----------------|
|-------------|-------------|-------------|----------------|
|-------------|-------------|-------------|----------------|


|----------|22b24r-18h21p18-|------------|-----------|-----------|-----------|
|----17-17-|----------------|------------|-----------|-----------|-----------|
|-15-16-16-|----------------|-9--9--9--9-|14-14-14-14|17-17-17-17|21-21-21-21|
|----------|----------------|------------|-----------|-----------|-----------|
|----------|----------------|------------|-----------|-----------|-----------|
|----------|----------------|------------|-----------|-----------|-----------|
Rhythm Over Solo: Guitar 1          
|--------------|--------------|--------------|--------------|---------------|
|--------------|--------------|--------------|--------------|---------------|
|.-------------|--------------|--------------|--------------|---------------|
|.7-x-x-7-7-7-7|-6-x-x-6-6-6-6|-5-x-x-5-5-5-5|-4-x-x-4-4-4-4|-3-x-x-3-3-3-3-|
|-7-x-x-7-7-7-7|-6-x-x-6-6-6-6|-5-x-x-5-5-5-5|-4-x-x-4-4-4-4|-3-x-x-3-3-3-3-|
|-5-x-x-5-5-5-5|-4-x-x-4-4-4-4|-3-x-x-3-3-3-3|-2-x-x-2-2-2-2|-1-x-x-1-1-1-1-|

|--------------|--------------|-----------------|-----------------|
|--------------|--------------|-----------------|-----------------|
|--------------|--------------|-9-9-9-9-9-9-9-9-|-9-9-9-9-9-9-9-9.|
|-5-x-x-5-5-5-5|-7-x-x-7-7-7-7|-9-9-9-9-9-9-9-9-|-9-9-9-9-9-9-9-9.|
|-5-x-x-5-5-5-5|-7-x-x-7-7-7-7|-7-7-7-7-7-7-7-7-|-7-7-7-7-7-7-7-7-|
|-3-x-x-3-3-3-3|-5-x-x-5-5-5-5|-----------------|-----------------|Then

|-----------------|-----------------|
|-----------------|-----------------|
|-9-9-9-9-9-9-9-9-|-9-9-9-9-9-9-9-9-|
|-9-9-9-9-9-9-9-9-|-9-9-9-9-9-9-9-9-|
|-7-7-7-7-7-7-7-7-|-7-7-7-7-7-7-7-7-|
|-----------------|-----------------|

Chorus 3
|-------------------------|-------------------------|-----------------|
|-------------------------|-------------------------|-----------------|
|-------------------------|-------------------------|-7-7-7-7\9-9-9-9-|
|-10-10-10-10-10-10-10-10-|-10-10-10-10-10-10-10-10-|-7-7-7-7\9-9-9-9-|
|-10-10-10-10-10-10-10-10-|-10-10-10-10-10-10-10-10-|-5-5-5-5\7-7-7-7-|
|-8--8--8--8--8--8--8--8--|-8--8--8--8--8--8--8--8--|-----------------|

|-----------------|-------------------------|-------------------------|--
|-----------------|-------------------------|-------------------------|--
|-----------------|-------------------------|-------------------------|--
|-7-7-7-7-7-7-7-7-|-10-10-10-10-10-10-10-10-|-10-10-10-10-10-10-10-10-|--
|-7-7-7-7-7-7-7-7-|-10-10-10-10-10-10-10-10-|-10-10-10-10-10-10-10-10-|--
|-5-5-5-5-5-5-5-5-|-8--8--8--8--8--8--8--8--|-8--8--8--8--8--8--8--8--|--
|Guitar 2
|-----------------|-------------------------|-------------------------|--
|-----------------|-------------------------|-------------------------|--
|-----------------|-------------------------|-------------------------|--
|-7-7-7-7-7-7-----|-10-10-10-10-10-10-10-10-|-------------------------|--
|-7-7-7-7-7-7-----|-10-10-10-10-10-10-10-10-|-same as
above-----------|--
|-5-5-5-5-5-5-\\13/-8--8--8--8--8--8--8--8--|-------------------------|--

|-----------------|-----------------|------------------|-----------------|
|-----------------|-----------------|------------------|-----------------|
|-7-7-7-7\9-9-9-9-|-----------------|------------------|-----------------|
|-7-7-7-7\9-9-9-9-|-7-7-7-7-7-7-7-7-|-10-10----------x-|-10-10---------x-|
|-5-5-5-5\7-7-7-7-|-7-7-7-7-7-7-7-7-|-10-10----------x-|-10-10---------x-|
|-----------------|-5-5-5-5-5-5-5-5-|-8--8-----------x-|-8--8----------x-|
Slower Tempo



|-----------------|------------------------------------------------------
|-----------------|------------------------------------------------------
|-7-7-7-7\9-9-9-9-|------------------------------------------------------
|-7-7-7-7\9-9-9-9-|-7----------------------------------------------------
|-5-5-5-5\7-7-7-7-|-7----------------------------------------------------
|-----------------|-5-pick
scrapes,-etc----------------------------------
|Guitar 2               
|-----------------|-x--15p12--15p12--15p12--15p12--15p12--15p12--15p12---
|-----------------|--13-----13-----13-----13-----13-----13-----13-----13-
|-7-7-7-7\9-9-9-9-|------------------------------------------------------
|-7-7-7-7\9-9-9-9-|--not exact number of
times---------------------------
|-5-5-5-5\7-7-7-7-|------------------------------------------------------
|-----------------|------------------------------------------------------
                        Free Time
|------------------------------------------------------------------------
|------------------------------------------------------------------------
|------------------------------------------------------------------------
|----------------------------------/-------------------------------------
|----------------------------------/-------------------------------------
|----------------------------------/-------------------------------------
|
|15p12--15p12--15p12--15p12----------------------------------------------
|-----13-----13-----13-------15-13---------------------------------------
|----------------------------------14~~----------------------------------
|------------------------------------------------------------------------
|------------------------------------------------------------------------
|------------------------------------------------------------------------

KEY
p  pull off
h  hammer on
/  slide down
\  slide up
~  slight vibrato
x  muted note
Comments