Offspring - Dui Chords & Tabs

 

Dui Chords & Tabs

Offspring Chords & Tabs

Version: 1 Type: Tab 0 ratings
1 star 2 stars 3 stars 4 stars 5 stars
comments

Dui Tab

Song: D.U.I
Artist: The Offspring
Album: -
As tabbed by Joe Muggah

Intro (Guitar 1)
e----------------------------------------------------------
B----------------------------------------------------------
G--------------7-7--7m-7m--9-9--9m-9m----------------------
D--9-9--9m-9m--7-7---------9-9---------7-7-7-8-------------
A--9-9---------5-5---------7-7---------7-7-7-8-------------
E--7-7---------------------------------5-5-5-6-------------

Riff 1 (Guitar 2)
e-------------------10-------------------------------------
B----------------------12-10-12--10---------10-12-12-12-12-
G--11^-11^-11^-11^------------------11-------9-11-11-11-11-
D---9^--9^--9^--9^---------------------12------------------
A----------------------------------------------------------
E----------------------------------------------------------

(continued)
e----------------------------------------------------------
B--12-12-12-12---------------------------------------------
G--11-11-11-11--11-11p9\7----------------------------------
D-------------------------7-9\-----------------------------
A----------------------------------------------------------
E----------------------------------------------------------

Verse
e----------------------------------------------------------
B----------------------------------------------------------
G-----------7m-7m-7--9m-9m-9-------------------------------
D--9m-9m-9--7m-7m-7--9m-9m-9--7m-7m-7m-8m------------------
A--9m-9m-9--5m-5m-5--7m-7m-7--7m-7m-7m-8m------------------
E--7m-7m-7--------------------5m-5m-5m-6m------------------
("Three in the morning...")

Pre-Chorus
e----------------------------------------------------------
B----------------------------------------------------------
G----------7--------------------7--------------------------
D--9---5---7---7-7-7----9---5---7---7-7-7------------------
A--9---5---5---7-7-7----9---5---5---7-7-7------------------
E--7---3-------5-5-5----7---3-------5-5-5------------------
("Cops they took my license away...")

Chorus (Guitar 1)
e----------------------------------------------------------
B----------------------------------------------------------
G---------7-7--9--------------7-7--9-----------------------
D--9-x-x--7-7--9--7-8--9-x-x--7-7--9--7-8------------------
A--9-x-x--5-5--7--7-8--9-x-x--5-5--7--7-8------------------
E--7-x-x----------5-6--7-x-x----------5-6------------------
("Drink and drive...")
[ Tab from: http://www.guitartabs.cc/tabs/o/offspring/dui_tab.html ]
Riff 2 (Guitar 2)
e----------------------------------------------------------
B-----10-10-10-10/12-12-12-12--10/12-12-12-12--10/12-12-12-
G-9\---9--9--9--9/11-11-11-11---9/11-11-11-11---9/11-11-11-
D-9\---7--7--7--7/-9--9--9--9---7/-9--9--9--9---7/-9--9--9-
A----------------------------------------------------------
E----------------------------------------------------------

(continued)
e--10------------------------------------------------------
B------12-10-----------------------------------12^--\------
G------------11---11^-11-11^-11--11p9\7----7---11^--\------
D----------------------------------------7------9^--\------
A----------------------------------------------------------
E----------------------------------------------------------

Post-Chorus
e----------------------------------------------------------
B----------------------------------------------------------
G-------------7--7--7-7-7-7--------------------------------
D--9--9--9-9--7--7--7-7-7-7--5--5--5-5--7--7--7-7-7-7------
A--9--9--9-9--5--5--5-5-5-5--5--5--5-5--7--7--7-7-7-7------
E--7--7--7-7-----------------3--3--3-3--5--5--5-5-5-5------
("When I'm on a binge...")

(continued)
e----------------------------------------------------------
B----------------------------------------------------------
G-------------7--7--7-7-7-7--11--11--11-11--11-11----------
D--9--9--9-9--7--7--7-7-7-7--11--11--11-11--11-11----------
A--9--9--9-9--5--5--5-5-5-5---9---9---9--9---9--9----------
E--7--7--7-7-----------------------------------------------

Solo
e--10p7-7--10p7---7--10p7-7--------------------------------
B---------------7------------------------------------------
G-----------------------------9/11-11-11-11-11-11-11-11----
D----------------------------------------------------------
A----------------------------------------------------------
E----------------------------------------------------------

(continued)
e----------------------------------------------------------
B----------------------------------------------------------
G--11p9\7----7----------7m-9m-11m-9m-11-11p9\7-----7-------
D----------7---9--9m-7m-------------------------7----------
A----------------------------------------------------------
E----------------------------------------------------------

(continued)
e--11-11-11-11-11-11-11-11--14-14-14-14-14-14-14\----------
B--12-12-12-12-12-12-12-12--15-15-15-15-15-15-15\----------
G--11-11-11-11-11-11-11-11--14-14-14-14-14-14-14\----------
D----------------------------------------------------------
A----------------------------------------------------------
E----------------------------------------------------------

Intro 
Intro, Riff
Verse
Pre-Chorus
Chorus 
Chorus, Riff 2
Verse (all palm muted)
Pre-Chorus
Chorus 
Post-Chorus
Chorus, Solo
Pre-Chorus
Chorus
Post-Chorus
Comments