Offspring - Disclaimer Chords & Tabs

 

Disclaimer Chords & Tabs

Offspring Chords & Tabs

Version: 1 Type: Tab 0 ratings
1 star 2 stars 3 stars 4 stars 5 stars
comments

Disclaimer Tab

song:disclaimer
artist:offspring
album:ixnay on the hombre
george bush:idiot

------------------------------------------
--------------------------------2---2-2---
--------------------------2--2----------2-
-----------2--2-4-2-4-2-4---------2-------
-4-2-4-2-4--------------------------------
------------------------------------------

------------------------------------------
-------------------------------2---2-0-2--
--------------------------2--2------------
-----------2--2-4-2-4-2-4--------2--------
-4-2-4-2-4--------------------------------
------------------------------------------
[ Tab from: http://www.guitartabs.cc/tabs/o/offspring/disclaimer_tab.html ]
------------------------------------------------------0-
-2-0-2-0-2---0-2-0-2-0-2---0-2-0-2-0-2----0-2-0-2-0-2---
-----------2-------------2-------------2----------------
--------------------------------------------------------
--------------------------------------------------------
--------------------------------------------------------

play the above twice
then play

-----------------------------------------
-------------------------------2---2-2---
--------------------------2--2---------2-
-----------2--2-4-2-4-2-4--------2-------
-4-2-4-2-4-------------------------------
-----------------------------------------

-----------------
-------2---2-2---
---------------2-
-2-0-2---2-------
-----------------
-----------------

play this piece slower

-----------------
-------2---2-2---
---------------2-
-2-0-2---2-------
-----------------
-----------------

----------------------------------------------------------
Comments