Offspring - Dirty Magic Chords & Tabs

 

Dirty Magic Chords & Tabs

Offspring Chords & Tabs

Version: 7 Type: Tab 0 ratings
1 star 2 stars 3 stars 4 stars 5 stars
comments

Dirty Magic Tab

The Offspring
"Dirty Magic"
Ignition
tabbed by: Diego "changfoogibperez"(changfoo33@yahoo.com)
standard tuning


Intro Gtr. 1
Riff 1
e||-----------------------------------------------------------------------||
B||-----------------------------------------------------------------------||
G||-----------------------------------------------------------------------||
D||-----------------------------------------------------------------------||
A||-------------7------7----------10----------9--------2---3-2---2---3-2--||
E||--0-0--\5-5----5--5---5--5\8-8----8--8/7-7---7--7/0---0-----0---0------||

Almost at the end of the second time doin' that comes in Gtr 2 with this:
Riff 2
e||-----------------------------------------------------------------------0-0--||
B||--5-5-5-5-5-5-5-5-5-5-5-5-5/3-3-3-3\5--5-5-5--5-5-5-5-5-5/3--3-3--5-5--0-0--||
G||----------------------------------------------------------------------------||
D||----------------------------------------------------------------------------||
A||----------------------------------------------------------------------------||
E||----------------------------------------------------------------------------||


Chorus:
e||-----------------------------------------------------------||
B||-----------------------------------------------------------||
G||--7\9--9-9--9----7\9--9-9--9---------------7--7-7--7-7-7---||
D||--7\9--9-9--9----7\9--9-9--9---5-5--5-5-5--7--7-7--7-7-7---||x3
A||--5\7--7-7--7----5\7--7-7--7---5-5--5-5-5--5--5-5--5-5-5---||
E||-------------------------------3-3--3-3-3------------------||
pm        - -            - -
[ Tab from: http://www.guitartabs.cc/tabs/o/offspring/dirty_magic_tab_ver_7.html ]
then fill the last time with this:
e||----------------------------------------0--||
B||----------------------------------------0--||
G||----------------------------------------0--||
D||--7-7--7-7-7--7\10-10-10-10--9-9-9-9----2--||
A||--7-7--7-7-7--7\10-10-10-10--9-9-9-9----2--||
E||--5-5--5-5-5--5\8--8--8--8---7-7-7-7----0--||


Repeat Riff 1 and Riff 2 as in the song together and after two times add this
e||--0---0--0--0----0--0--0---0- 0---0--0--0---0--0---0--0---0--0---0--0--0-0---0--0---0--0--0--0--0--0---||
B||--12--12-12-12---12-12-12--12\13--13-13-13--13-13--13/12--12/10--10/8--8\10--10\12--12-12-12-12-12-12--||
G||-------------------------------------------------------------------------------------------------------||
D||-------------------------------------------------------------------------------------------------------||
A||-------------------------------------------------------------------------------------------------------||
E||-------------------------------------------------------------------------------------------------------||
Repeat twice then go back to Riff 2 again 
while Riff 1 is played the same all over this part

Chorus again.



In my own simple way
I think she wants me only
She said, "Come over right away."
But she's just not that way
Her little soul is stolen
See her put on her brand new face
CHORUS
Pull the shades
Razor blades
You're so tragic
I hate you so but love you more
I'm so elastic
The things you say
Games you play
Dirty Magic

I should know better than to
TThink I'd reach inside her
It's all a cloudy kind of daze
She's not so sweet today
She mocks me, I'm no fighther
It all just seems like such a waste
It's oversimplified

CHORUS
Comments