Offspring - Dirty Magic Chords & Tabs

 

Dirty Magic Chords & Tabs

Offspring Chords & Tabs

Version: 4 Type: Tab 0 ratings
1 star 2 stars 3 stars 4 stars 5 stars
comments

Dirty Magic Tab

#----------------------------------PLEASE NOTE---------------------------------#
#This file is the author's own work and represents their interpretation of the #
#song. You may only use this file for private study, scholarship, or research. #
#------------------------------------------------------------------------------##

"Dirty Magic" -The Offspring
transcribed by Joe Minarik
 

 
Tune down one whole step 

Intro    
-------------------------------------------------
-------------------------------------------------
-------------------------------------------------
-------------------------------------------------
------7-------7--------10--------9---------------
0-5-5---5---5---5--8-8----8--7-7---7-------------
 
 
                       
-------------------------------------------------
-------------------------------------------------
-------------------------------------------------
-------------------------------repeat------------
---2---3-2----2---3-2----------------------------
-0---0------0---0-----3--------------------------
 
[ Tab from: http://www.guitartabs.cc/tabs/o/offspring/dirty_magic_tab_ver_4.html ]
Chorus
------------------------------------------------------
------------------------------------------------------
--7/9-9-9-9--7/9-9-9-9--------7--7--------------------
--7/9-9-9-9--7/9-9-9-9--5--5--7-7-7-------repeat------
--5/7-7-7-7--5/7-7-7-7--5-5-5-5-----------------------
------------------------3-----------------------------
 
 
-----------------------------------------------------
-----------------------------------------------------
--7-7-7-7-7-7--10-10-10-10--9-9-9-9-2----------------
--7-7-7-7-7-7--10-10-10-10--9-9-9-9-2----------------
--5-5-5-5-5-5--8--8--8--8---7-7-7-7-0----------------


 
Fill 1Fill 2
---------------------------------------------
--5-5-5-5-5-5-5-0-0-0------3/5-5-5-5-5-------
---------------------------------------------
---------------------------------------------
---------------------------------------------
---------------------------------------------

Fill 3Fill 4
----------------------------------------
--5-5-5-5-5-5-5-5-----5-5-3-3-3-3/5-5-0-
----------------------------------------
----------------------------------------
----------------------------------------
----------------------------------------       



Interlude
----------------------------------------------------
--7-7-7-7/8-8-8-8-8-8-7-7-5-5-3-3/5/7---------------
----------------------------------------------------
----------------------------------------------------
----------------------------------------------------
----------------------------------------------------
Comments