Offspring - Dirty Magic Chords & Tabs

 

Dirty Magic Chords & Tabs

Offspring Chords & Tabs

Version: 1 Type: Bass Tab 0 ratings
1 star 2 stars 3 stars 4 stars 5 stars
comments

Dirty Magic Bass Tab

Date: Tue, 5 Dec 1995 20:04:25 -0500
From: Don Pezet 
Subject: BTAB: Dirty Magic by Offspring

Bass Tab by: Don Pezet (dpezet@ao.net)
Group: Offspring
Song: Dirty Magic
Album: Ignition
Written and Arranged by: Offspring

Notes: This is a really cool song. The bass tab follows the
guitar almost perfectly, so it gives you a chance to get
some really cool effects going. Enjoy.

Intro & verse

G|---------------------------------------------------------------------------
D|---------------------------------------------------------------------------
A|---------------7---------7----------10---------------9---------------------
E|--0--3/5--5-5-----5---5-----5-5/8-8-----8--8\7--7-7----7-0-7-8-7-0-7-0-8-7-

Well, I know the intro is right, but I am not sure if the chorus is
correct. This is what I get from looking at some guitar tab, but it
just doesn't sound "perfect"
[ Tab from: http://www.guitartabs.cc/tabs/o/offspring/dirty_magic_btab.html ]
G|-----------------------------------------------------------------
D|-----------------------------------9--------------7--------------
A|--5/7--7--7--7----5-7-7-7------------9--------------7------------
E|----------------------------7-7-7------7---5-5-5------5----------

G|------------------------------------------------------------------
D|------------------------------------------------------------------
A|------------------------------------------------------------------
E|----5-5-5-5-5-5-5-5/8--8--8--8---7--7--0--------------------------


-----------------------------------------------------------------
That's it. If you know where I went wrong, e-mail me
with the corrections. This is one of my favorite songs
and it really gets me that I can't get the chorus
to sound right. Maybe he steps his bass down some, or
uses a pedal. I'll have to try it.


--
dpezet@accessorl.net

Comments