Offspring - Denial Revisited Chords & Tabs

 

Denial Revisited Chords & Tabs

Offspring Chords & Tabs

Version: 1 Type: Bass Tab 0 ratings
1 star 2 stars 3 stars 4 stars 5 stars
comments

Denial Revisited Bass Tab

Denial, Revisited
The Offspring
Conspiracy Of One
Drop-D Tuning (DADG)
Tabbed by Christopher Barranco

Intro 1X
G|----------------|----------------|----------------|---------------|
D|----------------|--------1-------|----------3-----|----------1----|
A|----------------|------1---------|-1------3-------|-3------1------|
D|-3/14-----------|-1--1-----------|---3--3---------|---1--1--------|

G|----------------|
D|---1-3----------|
A|-1--------------|
D|----------------|

Verse 4X                                                              
G|----------------|----------------|----------------|---------------|
D|--------3-------|----------3-----|-3-1-----3------|----------3----|
A|------3---------|-3------3-------|-----------1----|-3------3------|
D|-3--3-----------|---3--3---------|----------------|---3--3--------|
\/Last time play this instead of this--------------------/\
G|----------------|
D|----------------|
A|-1--3-----------|
D|------33333333--|

Chorus 2X
G|----------------|----------------|----------------|---------------|
D|-1-1111111-3----|----------------|-----3----------|---------3-----|
A|----------------|-1-1111111-3----|---3------------|-3----3--------|
D|----------------|----------------|-3--------------|---3-----------|
[ Tab from: http://www.guitartabs.cc/tabs/o/offspring/denial_revisited_btab.html ]
End of Chorus 1X
G|----------------|----------------|---------------|----------------|
D|--------1-------|----------3-----|----------1----|---1-3----------|
A|------1---------|-1------3-------|-3------1------|-1--------------|
D|-1--1-----------|---3--3---------|---1--1--------|----------------|

Verse 2X
Chorus 2X

Bridge 1X
G|----------------|----------------|----------------|
D|-1-1111111-3----|----------------|----------1---3-|
A|----------------|-1-1111111-3----|------------1---|
D|----------------|----------------|-5-554444-------|

End of Chorus 2X

Bridge 2 1X
G|----------------|----------------|----------------|----------------|
D|-3-3-3-3-3-3-3-3|-3-3-3-3-3-3-3-3|-3-3-3-3-3-3-3-3|-3-3-3-3-3-3-3-3|
A|----------------|----------------|----------------|----------------|
D|----------------|----------------|----------------|----------------|

Ending Verse 5X                    
G|----------------|----------------|----------------|----------------|
D|-1-1-1-1-1-1-1-1|----------------|-3-3-3-3-3-3-3-3|-3-3-3-3-3-3-3-3|
A|----------------|-1-1-1-1-1-1-1-1|----------------|----------------|
D|----------------|----------------|----------------|----------------|

End
G|----------------|----------------|----------------|
D|-1-1-1-1-1-1-1-1|----------------|-3--------------|
A|----------------|-1-1-1-1-1-1-1-1|----------------|
D|----------------|----------------|----------------|

Comments