Offspring - Demons Chords & Tabs

 

Demons Chords & Tabs

Offspring Chords & Tabs

Version: 1 Type: Bass Tab 0 ratings
1 star 2 stars 3 stars 4 stars 5 stars
comments

Demons Bass Tab

Song: Demons
Artist: The Offspring
Album: The Offspring (1.1.1990)
Tabber: me
Email: conspiracy.of.smash@gmail.com

intro  X6
G|-----------------------------------------------------------|
D|-----------------3-3-3-2-2-2-2-0-0-0-0-0-0-0-3-3-3-2-2-----|
A|---2-2-2-2-2-2-2---------------------------------------3---|
E|-----------------------------------------------------------|
                                                             
solo-back  
G------------------------------------------------------------------------|
D-----------2-2-2-2-2-2--0-0-0-0-0-0-------------------------------------|
A---2-(12x)---------------------------2-(12x)----------------------------|
E---------------------------------------------0-0-0-0-0-0--3-3-3-3-3-3---|
 
verse  X2  |end second time!
G|----------------------------------------------------|------|
D|----------------------------------------------------|------|
A|-0-0-0-0--3-3-3-3--2-2-2-2---------0-0-0-0--3-3-3-3-|--2---|
E|---------------------------2-2-2-2------------------|------|

G|-----------------------------------------------------------|
D|-----------------3-3-3-2-2-2-2-0-0-0-0-0-0-0-3-3-3-2-2-----|
A|---2-2-2-2-2-2-2---------------------------------------3---|
E|-----------------------------------------------------------|

G|-----------------------------------------------------------|
D|-----------------3-3-3-2-2-2-2-0-0-0-0-0-0-0-3-3-3-2-2-----|
A|---2-2-2-2-2-2-2---------------------------------------3---|
E|-----------------------------------------------------------|
[ Tab from: http://www.guitartabs.cc/tabs/o/offspring/demons_btab.html ]
G|------------------------------------------------------------------------|
D|-----------2-2-2-2-2-2--0-0-0-0-0-0-------------------------------------|
A|---2-(12x)---------------------------2-(12x)----------------------------|
E|---------------------------------------------0-0-0-0-0-0--3-3-3-3-3-3---|

verse  X2  |end second time!
G|----------------------------------------------------|------|
D|----------------------------------------------------|------|
A|-0-0-0-0--3-3-3-3--2-2-2-2---------0-0-0-0--3-3-3-3-|--2---|
E|---------------------------2-2-2-2------------------|------|

G|-----------------------------------------------------------|
D|-----------------3-3-3-2-2-2-2-0-0-0-0-0-0-0-3-3-3-2-2-----|
A|---2-2-2-2-2-2-2---------------------------------------3---|
E|-----------------------------------------------------------|

G|-----------------------------------------------------------|
D|-----------------3-3-3-2-2-2-2-0-0-0-0-0-0-0-3-3-3-2-2-----|
A|---2-2-2-2-2-2-2---------------------------------------3---|
E|-----------------------------------------------------------|

G|------------------------------------------------------------------------|
D|-----------2-2-2-2-2-2--0-0-0-0-0-0-------------------------------------|
A|---2-(12x)---------------------------2-(12x)----------------------------|
E|---------------------------------------------0-0-0-0-0-0--3-3-3-3-3-3---|

bridge  X2                                   # coda #
G|-------------------|    Play solo-back     G|---------------------|
D|-------------------|    and after that:    D|---------------------|
A|---2---------------|                       A|---3-3-3-3-5-5-5-5---|
E|-----------0---3---|                       E|---------------------|

bridge 2 *-play 4X                   
G|-----------------------|------*---*-----------*---------------------------|
D|-------0-0---2---------|--*--0---2----*---*--0---2--*--2--*--3---3---5---5|
A|-2-2-----------1-----3-|-2-----------3---2---------1-----1-----33------55-|
E|---------2X--------1---|--------------------------------------------------|

:P
Comments