Offspring - Defy You Chords & Tabs

 

Defy You Chords & Tabs

Offspring Chords & Tabs

Version: 7 Type: Tab 1 rating
1 star 2 stars 3 stars 4 stars 5 stars
comments

Defy You Tab

#----------------------------------PLEASE NOTE---------------------------------#
#This file is the author's own work and represents their interpretation of the #
#song. You may only use this file for private study, scholarship, or research. #
#------------------------------------------------------------------------------##

artist : The Offspring
Song   : Defy you

Tabbed by Adam
The_cheeky_chimp@hotmail.com

This is the new song by the offspring, its great, 
and as far as I know Im the first to tab it.


Intro/chorus 1

------------------------------------------------
------------------------------------------------
---7/9-9-9-9-9----------------------------------
---x-x-x-x-x-x---5--555--5/7-7-7-7-7---2----222-
---5/7-7-7-7-7---5--555--5/7-7-7-7-7---2----222-
-----------------3--333--3/5-5-5-5-5---0----000-

Intro/chorus 2

-------------------------------------------------
-------------------------------------------------
---7/9-9-9-9-9-----------------------------------
---x-x-x-x-x-x---5--555----7---5--7----2---2-----
---5/7-7-7-7-7---5--555----7---5--7----2---2-----
-----------------3--333----5---3--5----0---0-----

Intro 3

-----------------------------
-----------------------------
-7/9-9-9-9--11b--11(12)11----
-----------------------------
-----------------------------
-----------------------------

This one is playe dover the top of the first intro.  You listen to 
the track and will see. Its played three times in all.


Verse
[ Tab from: http://www.guitartabs.cc/tabs/o/offspring/defy_you_tab_ver_7.html ]
---------------------------------------------------
---------------------------------------------------
--(7-9-9-9-9-9)------------------------------------
---7-9-9-9-9-9---(5)-(5-7-7-7-7-7)--(2)------------
---5-7-7-7-7-7----5---5-7-7-7-7-7----2-------------
------------------3---3-5-5-5-5-5----0-------------
pm.................................................

(notes in brackets are optional)


funny echo bit

------------------------------------------------------------------------
------------------------------------------------------------------------
------------------------------------------------------------------------
---------------------------------------------------777777777------------
---77-77-77-77-77--55-55-55-55-55------------------777777777------------
-----------------------------------33-33-33-33-33--555555555------------


Later on variation of parts are used

intro 3 variation

----------------------------------
----------------------------------
--7/9-9-9-9----14h15-15b(16)15----
----------------------------------
----------------------------------
----------------------------------

funny echo bit variation

------------------------------------------------------------------------
------------------------------------------------------------------------
------------------------------------------------------------------------
------------------------------------------------------------------------
---77-77-77-77-77--55-55-55-55-55---------------------------------------
-----------------------------------33-33-33-33-33---88-88-88-88-88------




ok so thats it.  The song has only just come out over here in the UK, so I think 
Im the first.  Im not going to saying that it 100% correct and flawlewss
but you can see for yourself thats its ok.  I would appriciate it if you would send 
me your opinions.  Untill my next tab.  Bye.
 
             Adam

     the_cheeky_chimp@hotmail.com
Comments