Offspring - Defy You Chords & Tabs

 

Defy You Chords & Tabs

Offspring Chords & Tabs

Version: 4 Type: Tab 0 ratings
1 star 2 stars 3 stars 4 stars 5 stars
comments

Defy You Tab

DEFY YOU by THE OFFSPRING

Drop D down 1 step Tuning (Cgcfad)

Notes:
* = Play 8 times

 Main Riff x1 (Guitar 1) Heavy Distortion
|-----------------------------------------------------------------------|
|-----------------------------------------------------------------------|
|--4/6-6-6-6-6--------2-2-2-2-2-----4/6-6-6-6-6-------------------------|
|--x/x-x-x-x-x-/5---5-2-2-2-2-2-2---x/x-x-x-x-x-4/5---7--5-7---2-2-5-2--|
|--2/4-4-4-4-4-/5---5-0-0-0-0-0-2---2/4-4-4-4-4-4/5---7--5-7---2-2-5-2--|
|--------------/5---5-----------2---------------4/5---7--5-7---2-2-5-2--|

|-------------------------------------------------------------|
|-------------------------------------------------------------|
|--4/6-6-6-6-6----------------------4/6-6-6-6-6---------------|
|--x/x-x-x-x-x-/5---5/7-7-7-7-7-2---x/x-x-x-x-x-/5---7--5--2--|
|--2/4-4-4-4-4-/5---5/7-7-7-7-7-2---2/4-4-4-4-4-/5---7--5--2--|
|--------------/5---5/7-7-7-7-7-2---------------/5---7--5--2--|

 Solo x3 (Guitar 2) Heavy Distortion - Play when Guitar 1 finished the first of Main Riff
|------------------------------|
|------------------------------|
|--8/9--9-9-9--9-9--9-9--12-9--|
|--x/x--x-x-x--x-x--x-x--x--x--|
|--6/7--7-7-7--7-7--7-7--10-7--|
|------------------------------|

 Verse x1 (Guitar 1) Heavy Distortion
|-------------------------------------------------------------------------|
|-------------------------------------------------------------------------|
|--4/6-6-6-6-6---------2-2-2-2-2-----4/6-6-6-6-6---------2-2-2-2-2--------|
|--4/6-6-6-6-6-4/5---5-2-2-2-2-2-2---4/6-6-6-6-6-4/5---5-2-2-2-2-2-2---5--|
|--2/4-4-4-4-4-4/5---5-0-0-0-0-0-2---2/4-4-4-4-4-4/5---5-0-0-0-0-0-2---5--|
|--------------4/5---5-----------2---------------4/5---5-----------2---5--|
PM * * * * * * * *   * * * * * * *   * * * * * * * *   * * * * * * *

 Verse x1 (Guitar 1) Heavy Distortion
|---------------------------------------------------------------------|
|---------------------------------------------------------------------|
|--4/6-6-6-6-6---------2-2-2-2-2-----4/6-6-6-6-6---------2-2-2-2-2----|
|--4/6-6-6-6-6-4/5---5-2-2-2-2-2-2---4/6-6-6-6-6-4/5---5-2-2-2-2-2-2--|
|--2/4-4-4-4-4-4/5---5-0-0-0-0-0-2---2/4-4-4-4-4-4/5---5-0-0-0-0-0-2--|
|--------------4/5---5-----------2---------------4/5---5-----------2--|
PM * * * * * * * *   * * * * * * *   * * * * * * * *   * * * * * * *
[ Tab from: http://www.guitartabs.cc/tabs/o/offspring/defy_you_tab_ver_4.html ]
 Chorus x2 (Both Guitars) Heavy Distortion
|------------------------------------------------------------------------|
|------------------------------------------------------------------------|
|--4/6-6-6-6-6-----------------------4/6-6-6-6-6-------------------------|
|--x/x-x-x-x-x-4/5---5/7-7-7-7-7-2---x/x-x-x-x-x-4/5---7--5-7---2-2-5-2--|
|--2/4-4-4-4-4-4/5---5/7-7-7-7-7-2---2/4-4-4-4-4-4/5---7--5-7---2-2-5-2--|
|--------------4/5---5/7-7-7-7-7-2---------------4/5---7--5-7---2-2-5-2--|
PM                                                              * *

~~Verse~~

 Interlude x1 (Guitar 1 with chorus/delay effect+Mild Distortion)
|-----------------------------------------------------|
|-----------------------------------------------------|
|-----------------------------------------------------|
|----------------------------------66666666-77777777--|
|--44-44-44-44-4-4/22-22-22-22-2-2/xxxxxxxx-xxxxxxxx--|
|----------------------------------66666666-77777777--|
PM ** ** ** ** * * ** ** ** ** * * ******   ******  


~~Chorus~~ x2

Guitar 1 plays Chorus x2 and Guitar 2 plays Solo x5 and then
|------------------------------------|
|------------------------------------|
|--8/9--9-9-9--9-9--9-9-12/14-12-14--|
|--x/x--x-x-x--x-x--x-x-x--x--x--x---|
|--6/7--7-7-7--7-7--7-7-10-12-10-12--|
|------------------------------------|

 Interlude 2 x5 (Guitar 1 with chorus/delay effect+Mild Distortion)
|----------------------------------------------------------------------|
|----------------------------------------------------------------------|
|----------------------------------------------------------------------|
|----------------------------------------------------------------------|
|--44-44-44-44-4-4--22-22-22-22-2-2------------------------------------|
|------------------------------------66-66-66-66-6-6--77-77-77-77-7-7--|
PM ** ** ** ** * *  ** ** ** ** * *  ** ** ** ** * *  ** ** ** ** * *

 (Guitar 1) played Interlude 2 x3 (Guitar 2) play this x1
|------------------------------------------|
|------------------------------------------|
|--66666666--44444444----------------------|
|--66666666--44444444--66666666--77777777--|
|--44444444--22222222--66666666--77777777--|
|----------------------66666666--77777777--|
PM ********  ********  ********  ********

|------------------------------------------|
|------------------------------------------|
|--66666666--44444444----------------------|
|--xxxxxxxx--xxxxxxxx--66666666--66666666--|
|--44444444--22222222--xxxxxxxx--xxxxxxxx--|
|----------------------66666666--66666666--|


~~Chorus~~ x2

 End x1 (Both Guitars)
|--------------------------------------------------------------------|
|--------------------------------------------------------------------|
|--4/6-6-6-6-6--------------------------4/6-6-6-6-6------------------|
|--x/x-x-x-x-x-4/5---7--5-7---2-2-5-2---x/x-x-x-x-x-4/5---7---5---2--|
|--2/4-4-4-4-4-4/5---7--5-7---2-2-5-2---2/4-4-4-4-4-4/5---7---5---2--|
|--------------4/5---7--5-7---2-2-5-2---------------4/5---7---5---2--|


Send any Questions or comments to sad_air_732@hotmail.com

Comments