Offspring - Defy You Chords & Tabs

 

Defy You Chords & Tabs

Offspring Chords & Tabs

Version: 2 Type: Tab 0 ratings
1 star 2 stars 3 stars 4 stars 5 stars
comments

Defy You Tab

Title: Defy You 
Artist: The Offspring 
Date: Jan 3 2002

Tabbed by Kevin Wilkes - wilkes@stargate.net 


some people can't tab, this sounds ALMOST exactly right to me.  I'm 16, and it's right, come on people!

standard tuning
EBGDAE

PM          |--|
Let Ring    ( )
Slide Down  \
Slide Up    /
Hammer On   H

********INTRO********
|---------------------------------------
|---------------------------------------
|77-99----------------------------------
|77-99--55-55-5-5---55-77--22-22-2-2----
|55-77--55-55-5-5---55-77--22-22-2-2----
|-------33-33-3-3---33-55--00-00-0-0----

|---------------------------------------
|---------------------------------------
|77-99----------------------------------
|77-99--55-55-5-5---77--55--5--22--5-2--
|55-77--55-55-5-5---77--55--5--22--5-2--
|-------33-33-3-3---55--33--7--00--3-0--
			      |--|

|---------------------------------------
|---------------------------------------
|77-99----------------------------------
|77-99--55-55-5-5---55-77--22-22-2-2----
|55-77--55-55-5-5---55-77--22-22-2-2----
|-------33-33-3-3---33-55--00-00-0-0----

|---------------------------------------
|---------------------------------------
|77-99----------------------------------
|77-99--55-55-5-5---77--55--(2)---------
|55-77--55-55-5-5---77--55--(0)---------
|-------33-33-3-3---55--33--(0)---------

********INTRO RIFF********
|-------------------------
|-------------------------
|7h9-99-99-99-9\12-12/9---
|-------------------------
|-------------------------
|-------------------------


********VERSE********
|-------------------------           ------
|-------------------------           ------
|-------------------------           ------
|77-999-555----55-777-222- (2X) then --(7)- then play
|77-999-555----55-777-222-	     --(7)-
|55-777-333----33-555-000-           --(5)-
 |----------------------|

|-------------------------
|-------------------------
|-------------------------
|77-999-555----55-777-222- (2x)
|77-999-555----55-777-222-
|55-777-333----33-555-000-
 |----------------------|


********CHORUS********
|---------------------------------------
|---------------------------------------
|77-99----------------------------------
|77-99--55-55-5-5---55-77--22-22-2-2----
|55-77--55-55-5-5---55-77--22-22-2-2----
|-------33-33-3-3---33-55--00-00-0-0----
                                         (2x)
|---------------------------------------
|---------------------------------------
|77-99----------------------------------
|77-99--55-55-5-5---77--55--5--22--5-2--
|55-77--55-55-5-5---77--55--5--22--5-2--
|-------33-33-3-3---55--33--7--00--3-0--
			      |--|


********VERSE********
|-------------------------           ------
|-------------------------           ------
|-------------------------           ------
|77-999-555----55-777-222- (2X) then --(7)- then play
|77-999-555----55-777-222-	     --(7)-
|55-777-333----33-555-000-           --(5)-
 |----------------------|

|-------------------------
|-------------------------
|-------------------------
|77-999-555----55-777-222-  (2x)
|77-999-555----55-777-222-
|55-777-333----33-555-000-
 |----------------------|

[ Tab from: http://www.guitartabs.cc/tabs/o/offspring/defy_you_tab_ver_2.html ]
********BRIDGE********(clean)
|-----------------------------------------------------------------------
|-----------------------------------------------------------------------
|-----------------------------------------------------------------------
|9-----------------7----------------------------------------------------
|77-77-77-77-7777--55-55-55-55-5555--53-33-33-33-3333--77-77-77-77-7777-
|------------------------------------33-33-33-33-3333--55-55-55-55-5555-
 |--------------------------------|


********CHORUS********(2x)
|---------------------------------------
|---------------------------------------
|77-99----------------------------------
|77-99--55-55-5-5---55-77--22-22-2-2----
|55-77--55-55-5-5---55-77--22-22-2-2----
|-------33-33-3-3---33-55--00-00-0-0----
                                         (2x)
|---------------------------------------
|---------------------------------------
|77-99----------------------------------
|77-99--55-55-5-5---77--55--5--22--5-2--
|55-77--55-55-5-5---77--55--5--22--5-2--
|-------33-33-3-3---55--33--7--00--3-0--
			      |--|

|---------------------------------------
|---------------------------------------
|77-99----------------------------------
|77-99--55-55-5-5---55-77--22-22-2-2----
|55-77--55-55-5-5---55-77--22-22-2-2----
|-------33-33-3-3---33-55--00-00-0-0----
                                         (2x)
|---------------------------------------
|---------------------------------------
|77-99----------------------------------
|77-99--55-55-5-5---77--55--5--22--5-2--
|55-77--55-55-5-5---77--55--5--22--5-2--
|-------33-33-3-3---55--33--7--00--3-0--
			      |--|

********CHORUS RIFF********
|-------------------------
|-------------------------
|7h9-99-99-99-9/12-12\9---(2nd time on 2nd and 4th time through)
|-------------------------
|-------------------------
|-------------------------


********BRIDGE********(clean)
|-----------------------------------------------------------------------
|-----------------------------------------------------------------------
|-----------------------------------------------------------------------
|9-----------------7----------------------------------------------------  (3X) 
|77-77-77-77-7777--55-55-55-55-5555--5-----------------7----------------
|------------------------------------33-33-33-33-3333--55-55-55-55-5555-
 |--------------------------------------------------------------------| 

then(dist.)

|--------------------------------
|--------------------------------
|9-9--9-9--9-9--9-9--9-9-9-9----- (4x)
|x-x--x-x--x-x--x-x--x-x-x-x-----
|7-7--7-7--7-7--7-7--7-7-7-7-----



********OUTRO********
|---------------------------------------
|---------------------------------------
|77-99----------------------------------
|77-99--55-55-5-5---55-77--22-22-2-2----
|55-77--55-55-5-5---55-77--22-22-2-2----
|-------33-33-3-3---33-55--00-00-0-0----
                                           (2x)
|---------------------------------------
|---------------------------------------
|77-99----------------------------------
|77-99--55-55-5-5---77--55--5--22--5-2--
|55-77--55-55-5-5---77--55--5--22--5-2--
|-------33-33-3-3---55--33--7--00--3-0--
			      |--|

then

|---------------------------------------
|---------------------------------------
|77-99----------------------------------
|77-99--55-55-5-5---77--55--5--22--5-2--
|55-77--55-55-5-5---77--55--5--22--5-2--
|-------33-33-3-3---55--33--7--00--3-0--
			      |--|

|---------------------------------------
|---------------------------------------
|77-99----------------------------------
|77-99--55-55-5-5---77--55--(2)---------
|55-77--55-55-5-5---77--55--(0)---------
|-------33-33-3-3---55--33--(0)---------
Comments