Offspring - Defy You Chords & Tabs

 

Defy You Chords & Tabs

Offspring Chords & Tabs

Version: 15 Type: Tab 0 ratings
1 star 2 stars 3 stars 4 stars 5 stars
comments

Defy You Tab

Defy You by The Offspring. Orange County O.S.T(2002)
Easy song very fun to play!
Any questions comments send me to briets@email.ru
# Intro/Chorus #  play X2                                         # End Intro #
E---------------------------------------------------------------|> E---------|
B---------------------------------------------------------------|> B---------|
G---7/9-9-9-----------------------7/9-9-9-----------------------|> G---------|
D---7/9-9-9-5-5-5--5/7-7-7-2-2-2--7/9-9-9-5-5-5--7-5-7-2-2-5-2--|> D--7-5-2--|
A---5/7-7-7-5-5-5--5/7-7-7-2-2-2--5/7-7-7-5-5-5--7-5-7-2-2-5-2--|> A--7-5-2--|
E-----------3-3-3--3/5-5-5-0-0-0----------3-3-3--5-3-5-0-0-3-0--|> E--5-3-0--|
>
# Solo1 #  (comes after intro X1 )  # Solo2 # 
E-----------------------|           E-----------------------------|
B-----------------------|           B-----------------------------|
G--7/9-9-9-9--9-9/12-9--| X3        G--7/9-9-9-9--14-14-14\12/14--|    
D-----------------------|           D-----------------------------|
A-----------------------|           A-----------------------------|
E-----------------------|           E-----------------------------|
>
# Verse #  play X4 ()=second time only  P-M= palm-mute
E---------------------------------|
B---------------------------------|
G--7/9-9-9------------------------|
D--7/9-9-9-5--5--2-5/7-7-7-2-(5)--|
A--5/7-7-7-5--5--2-5/7-7-7-2-(5)--|
E----------3--3--0-3/5-5-5-0-(3)--|
> \__________P-M___________/
>
Play # Intro/Chorus # X2, # Verse # X4, # Bridge (part1,part3) #, # Intro/Chorus # X4 , 
second guitar - # Solo1 (comes after # Intro/Chorus # X2)# X5, # Solo2 #, # Bridge(part1,part2) # X4,
# Bridge (part3) #                                                        \ 5 time-without P-M / 
>                                                                                   
# Bridge #  P-M=palm-mute  Part1            Part2
E------------------------------------------|--------------------------------------------|
B------------------------------------------|--------------------------------------------|
G------------------------------------------|--------------------------------------------|
D--9------------------9-7------------------|--7-----------------------------------------|
A--7-7-7-7-7-7-7-7-7--7-5-5-5-5-5-5-5-5-5-5|--5-5------------------5-7------------------|
E------------------------------------------|----3-3-3-3-3-3-3-3-3--3-5-5-5-5-5-5-5-5-5--|
>    \______________/     \_______________/      \______________/     \______________/
>          P-M                  P-M                    P-M                  P-M
Part3
E------------------------------------------|
B------------------------------------------|
G------------------------------------------|
D---5-5-5-5-5-5-5-5-7-7-7-7-7-7-7-7-7-7-7--|
A---5-5-5-5-5-5-5-5-7-7-7-7-7-7-7-7-7-7-7--|
E---3-3-3-3-3-3-3-3-5-5-5-5-5-5-5-5-5-5-5--|
>  \________________P-M__________________/
>
Play # Intro/Chorus # X2
>
# Outro #
E------------------------------------------------------|
B------------------------------------------------------|
G--7/9-9-9-----------------------7/9-9-9---------------|
D--7/9-9-9-5-5-5--7-5-7-2-2-5-2--7/9-9-9-5-5-5--7-5-2--|
A--5/7-7-7-5-5-5--7-5-7-2-2-5-2--5/7-7-7-5-5-5--7-5-2--|
E----------3-3-3--5-3-5-0-0-3-0----------3-3-3--5-3-0--| 

Tabbed by Briets(Andrei)
YYEEAAHH!!!
[ Tab from: http://www.guitartabs.cc/tabs/o/offspring/defy_you_tab_ver_15.html ]
Comments