Offspring - Dammit I Changed Again Chords & Tabs

 

Dammit I Changed Again Chords & Tabs

Offspring Chords & Tabs

Version: 7 Type: Tab 0 ratings
1 star 2 stars 3 stars 4 stars 5 stars
comments

Dammit I Changed Again Tab

The Offspring , Dammit, I changed again .
 Tabbed by Sebastian Lapidus, sebaslap@yahoo.com.
  
This is the complete and CORRECT version. In this site there are another ones but both of them are wrong!

Intro:

e|----------------------------------------------------
B|----------------------------------------------------
G|-----/-10-13-12-13-----13-12-13------13-12-13--15-13
D|-3:--/--x--x--x--x-11---x--x--x--13---x--x--x---x--x
A|-3:--/--8-11-10-11--x--11-10-11---x--11-10-11--13-11
E|-1:-----------------9------------11-----------------
 
 -----------|
 -----------|
 -12-8--10--|
 --x-x---x--|
 -10-6---8--|
 -----------|

Pre-chorus:
 PM___________________
 |--------------------|
 |--------------------|
 |------------------8-|
 |-6-6-6-6-6-6-6-6--8-|
 |-6-6-6-6-6-6-6-6--6-|
 |-4-4-4-4-4-4-4-4----|

Chrous:

 |---------------------------------------------------
 |---------------------------------------------------
 |-10-10-10-10-10-10-10-10-10--6-6-6-6-6-6-6---------
 |-10-10-10-10-10-10-10-10-10--6-6-6-6-6-6-6-6-6-6-6-
 |--8--8--8--8--8--8--8--8--8--4-4-4-4-4-4-4-6-6-6-6-
 |-------------------------------------------4-4-4-4-

 ------------------------------------|
 ------------------------------------|
 -6-6-6-6-6--8-8-8-8-8-8-8-8-8-8-8-8-| 
 -6-6-6-6-6--8-8-8-8-8-8-8-8-8-8-8-8-|
 -6-6-6-6-6--6-6-6-6-6-6-6-6-6-6-6-6-|
 -4-4-4-4-4--------------------------|

Pre-chorus 2
[ Tab from: http://www.guitartabs.cc/tabs/o/offspring/dammit_i_changed_again_tab_ver_7.html ]
  PM__________________________________________________
 |----------------------------------------------------
 |----------------------------------------------------
 |----------------6-6-6-6-6-6-6-----------------8-8-8-
 |-3-3-3-3-3-3-3--6-6-6-6-6-6-6--6-6-6-6-6-6-6--8-8-8-
 |-3-3-3-3-3-3-3--4-4-4-4-4-4-4--6-6-6-6-6-6-6--6-6-6-
 |-1-1-1-1-1-1-1-----------------4-4-4-4-4-4-4--------
 
 PM___________________________________________________
 -----------------------------------------------------
 -----------------------------------------------------
 -8-8-8-8-8-8-------------6-6-6-6-6-6---------------8-
 -8-8-8-8-8-8-3-3-3-3-3-3-6-6-6-6-6-6-6-6-6-6-6-6-6-8-
 -6-6-6-6-6-6-3-3-3-3-3-3-4-4-4-4-4-4-6-6-6-6-6-6-6-6-
 -------------1-1-1-1-1-1-------------4-4-4-4-4-4-4---

Bridge:

 |---------------------------------------------------
 |---------------------------------------------------
 |---------------------------------------------------
 |-10----10----10----11----11----11----10----10----10
 |----11----11----11----11----11----11----11----11---
 |---------------------------------------------------

 -----------------|
 -----------------|
 -----------------|
 -8----8----8-----|
 ---10---10----10-|
 -----------------|

Post-bridge


  PM__________________________________________________
 |----------------------------------------------------
 |----------------------------------------------------
 |----------------6-6-6-6-6-6-6-----------------8-8-8-
 |-3-3-3-3-3-3-3--6-6-6-6-6-6-6--6-6-6-6-6-6-6--8-8-8-
 |-3-3-3-3-3-3-3--4-4-4-4-4-4-4--6-6-6-6-6-6-6--6-6-6-
 |-1-1-1-1-1-1-1-----------------4-4-4-4-4-4-4--------
 PM_______
 ---------|
 ---------|
 ---------|
 -8-8-8-8-|
 -8-8-8-8-|
 -6-6-6-6-|
 ---------|

Outro:

 |-----------------------------|
 |-----------------------------|
 |-8-8-8-8-8-8-8-8-8--8--------|
 |-8-8-8-8-8-8-8-8-8--8-----3:-|
 |-6-6-6-6-6-6-6-6-6--6-----3:-|
 |--------------------------1:-|


Order:

-Intro
-Pre-chorus
-Chorus
-Pre-chorus 2
-Chorus X2 (During the second time play the intro)
-Bridge -> Post-bridge
-Chorus X 3(During the 2nd and the 3th time play intro)
-Outro

Legend:

x= scratch
/= slide up
PM= palm muted
:=let ring 
:: Ultimate Guitar Archive :: 
http://www.ultimate-guitar.com 



Comments