Offspring - Dammit I Changed Again Chords & Tabs

 

Dammit I Changed Again Chords & Tabs

Offspring Chords & Tabs

Version: 11 Type: Tab 0 ratings
1 star 2 stars 3 stars 4 stars 5 stars
comments

Dammit I Changed Again Tab

This should be at least 99% right, if u don't think so email me at
wee_man_183@hotmail.com ok?



e------------------------------------------
b------------------------------------------
g------------------------------------------
d------------------------------------------
a--3---------------------------------------  Let Ring
e--1---------------------------------------

bass solo goin
(pick slide)

e------------------------------------------
b------------------------------------------
g------------------------------------------
d-3-6-5-6--6-5-6--6-5-6-8-6-5-6------------  X2
a--------4------6--------------6-8---------
e------------------------------------------

CHORUS

e------------------------------------------------
b------------------------------------------------
g------------------------------------------------
d--10-(X4)6-(X4)--------6(X4)--------------------   X2
a---8-----4-------6(X4)-8------------------------
e-----------------4------------------------------


e------------------------------------------
b------------------------------------------
g------------------------------------------
d-3-6-5-6--6-5-6--6-5-6-8-6-5-6------------  X2
a--------4------6--------------6-8---------
e------------------------------------------

Wait a while singing and bass going
[ Tab from: http://www.guitartabs.cc/tabs/o/offspring/dammit_i_changed_again_tab_ver_11.html ]
e------------------------------------------------
b------------------------------------------------
g------------------------------------------------
d--10-(X4)6-(X4)--------6(X4)--------------------   X2
a---8-----4-------6(X4)-8------------------------
e-----------------4------------------------------

e------------------------------------------
b------------------------------------------
g------------------------------------------
d-3-6-5-6--6-5-6--6-5-6-8-6-5-6------------  X2
a--------4------6--------------6-8---------
e------------------------------------------

Solo 

e-------------------------------------------
b-------------------------------------------
g--------------6-6-6------------------------
d--10-10-10---6-6-6-6---10-10-10----8-8-8--- (X2)
a-8--8--8--8-----------8--8--8--8--6-6-6-6--

(GUitar 2 palm muted)

e------------------------------------------------
b------------------------------------------------
g------------------------------------------------
d--10-(X4)6-(X4)--------6(X4)--------------------   X2
a---8-----4-------6(X4)-8------------------------
e-----------------4------------------------------

guitar 1 and 2 play 


e------------------------------------------------
b------------------------------------------------
g------------------------------------------------
d--10-(X4)6-(X4)--------6(X4)--------------------   X2
a---8-----4-------6(X4)-8------------------------
e-----------------4------------------------------
and
e------------------------------------------
b------------------------------------------
g------------------------------------------
d-3-6-5-6--6-5-6--6-5-6-8-6-5-6------------  X2
a--------4------6--------------6-8---------
e------------------------------------------ 
at the same time 
thats it
Comments