Offspring - Dammit I Changed Again Chords & Tabs

 

Dammit I Changed Again Chords & Tabs

Offspring Chords & Tabs

Version: 1 Type: Tab 0 ratings
1 star 2 stars 3 stars 4 stars 5 stars
comments

Dammit I Changed Again Tab

DAMMIT, I CHANGED AGAIN by THE OFFSPRING from CONSPIRACY OF ONE (2000)
This song is one of my fav songs. It´s a typical Offspring-Song with the typical Offspring-Riffs.
I haven´t found any right versions of this one. But here is the right version!


=Intro=  X1 / # = let ring
|-------------------------------------------------------------------------------------|
|-------------------------------------------------------------------------------------|
|-------------------------------------------------------------------------------------|
|--3#-------------------------------------------------------------------------------|
|--3#-------------------------------------------------------------------------------|
|--1#-------------------------------------------------------------------------------|


=Main Riff=  X2 / play the brackets just the 1st time
|-------------------------------------------------------------------------------------|
|-------------------------------------------------------------------------------------|
|-------------------------------------------------------------------------------------|
|--------6-5-6------6-5-6------6-5-6--8-6-5---------------------------------|
|--(8)-----------4------------6---------------------6--8--------------------------|
|-------------------------------------------------------------------------------------|


=Post-Verse=  X1 / * = play this chord 8 times / this is played during "Woooh, wooh wo wo"
|-------------------------------------------------------------------------------------|
|-------------------------------------------------------------------------------------|
|-------8----------------------------------------------------------------------------|
|--6*--8----------------------------------------------------------------------------|
|--6*--6----------------------------------------------------------------------------|
|--4*--------------------------------------------------------------------------------|


=Chorus=  X2 / play every chord 8 times
|-------------------------------------------------------------------------------------|
|-------------------------------------------------------------------------------------|
|--10--6------8--------------------------------------------------------------------|
|--10--6--6--8--------------------------------------------------------------------|
|---8---4--6--6--------------------------------------------------------------------|
|-----------4------------------------------------------------------------------------|


Then play
=Main Riff=  X2


=Verse=  X1 / play every chord 8 times / start to play this when Dexter sings "It doesn´t make any sense..."
|-------------------------------------------------------------------------------------|
|-------------------------------------------------------------------------------------|
|------6-----8-------6--------------------------------------------------------------|
|--3--6--6--8--3--6--------------------------------------------------------------|
|--3--4--6--6--3--4--------------------------------------------------------------|
|--1------4-----1------------------------------------------------------------------|


Then play
=Post-Verse=  X1
=Chorus=  X4 / the 2nd guitar plays the =Main Riff=   X2 when the 1st guitar plays the =Chorus= the 3rd time
[ Tab from: http://www.guitartabs.cc/tabs/o/offspring/dammit_i_changed_again_tab.html ]
=Post-Chorus=  X1 / # = let ring
|-------------------------------------------------------------------------------------|
|-------------------------------------------------------------------------------------|
|--10-------------------------------------------------------------------------------|
|--10-------------------------------------------------------------------------------|
|---8--------------------------------------------------------------------------------|
|-------------------------------------------------------------------------------------|


=Bridge 1=  X1
|-------------------------------------------------------------------------------------|
|-------------------------------------------------------------------------------------|
|-------------------------------------------------------------------------------------|
|--11---11---11-------10---10---10--------8---8---8---------------------------|
|-----11---11-----11-----11---11-----11-----6---6-----6-----------------------|
|-------------------------------------------------------------------------------------|


=Bridge 2=  X3 
|-----------------------------------------------------------------------------------------|
|-----------------------------------------------------------------------------------------|
|-----------------------------------------------------------------------------------------|
|--10---10---10-----11---11---11------10---10---10--------8---8---8-------|
|------8----8------8------11---11-----11----11---11-----11-----6---6-----6--|
|-----------------------------------------------------------------------------------------|


=Bridge 3=  X1 / play every chord 8 times / start to play this when the 1st guitar plays =Bridge 2" the 3rd time
|--------------------------------------------------------------------------------------|
|--------------------------------------------------------------------------------------|
|------6-----8------------------------------------------------------------------------|
|--3--6--6--8-----------------------------------------------------------------------|
|--3--4--6--6-----------------------------------------------------------------------|
|--1------4---------------------------------------------------------------------------|


Then play
=Chorus=  X4 / the 2nd guitar plays the =Main Riff=   X2 when the 1st guitar plays the =Chorus= the 3rd time
=Post-Chorus=  X1 / don´t let the chord ring this time!


=Outro 1=  X1 
|------------------------------------------------------------------------------------|
|------------------------------------------------------------------------------------|
|------------------------------------------------------------------------------------|
|------6-5-6-----6-5-6------6-5-6--8-6-5-------6-5-6-----6-5-6---------|
|--8-----------4-----------6--------------------6-8-----------4------------------|
|-------------------------------------------------------------------------------------|


=Outro 2=  X1 / * = play this chord 9 times / # = let ring
|-------------------------------------------------------------------------------------|
|-------------------------------------------------------------------------------------|
|--8*--------------------------------------------------------------------------------|
|--8*-----I SEE IT!------3#-----------------------------------------------------|
|--6*-----------------------3#------------------------------------------------------|
|----------------------------1#------------------------------------------------------|


Now throw your guitar on the floor and smash a bottle on your head!
Send your comments about this Tab to "ali.germany2000@freenet.de"

Tabbed by: Ali_A (4th March 2001)
Thanks to: /per, Bruno Ferreira and Ernstjan Penninkhof  
Comments