Offspring - Dammit I Changed Again Chords & Tabs

 

Dammit I Changed Again Chords & Tabs

Offspring Chords & Tabs

Version: 2 Type: Bass Tab 0 ratings
1 star 2 stars 3 stars 4 stars 5 stars
comments

Dammit I Changed Again Bass Tab

Song: Dammit I Changed Again
Artist: The Offspring
Album: Conspiracy of One
Tabbed By: SeepZ (hypercobra69@hotmail.com)

This Tab is absoulutely 100% perfect, but if u dont think so, email me and we'll talk...

INTRO/VERSE

G---------------------------------------------------------------------------
D---------------------------------------------------------------------------
A-----------------4-4-4-4-4-4-4-4-----------------6-6-6-6-6-6-6-6-----------
E-1-1-1-1-1-1-1-1-----------------4-4-4-4-4-4-4-4---------------------------

CHORUS
[ Tab from: http://www.guitartabs.cc/tabs/o/offspring/dammit_i_changed_again_btab_ver_2.html ]
G---------------------------------------------------------------------------
D---------------------------------------------------------------------------
A-8-8-8-8-8-8-8-8-4-4-4-4-4-4-4-4-----------------6-6-6-6-6-6-6-6-----------
E---------------------------------4-4-4-4-4-4-4-4---------------------------

BRIDGE

G---------------------------------------------------------------------------
D---------------------------------------------------------------------------
A------------------------------44444444----------66666666-------------------
E-1~---1~---1/9\4/11\-11111111----------44444444----------------------------

END

G---------------------------------------------------------------------------
D---------------------------------------------------------------------------
A-6-6-6-6-6-6-6-6-6\--------------------------------------------------------
E--------------------1~-----------------------------------------------------

STRUCTURE:

INTRO/VERSE X2
CHORUS X2
INTRO/VERSE X2
CHORUS X4
INTRO/VERSE X4
CHORUS X4
BRIDGE X1
CHORUS X6
END X1
Comments