Offspring - Da Hui Chords & Tabs

 

Da Hui Chords & Tabs

Offspring Chords & Tabs

Version: 4 Type: Tab 0 ratings
1 star 2 stars 3 stars 4 stars 5 stars
comments

Da Hui Tab

   
Artist / band: The Offspring
Album: Splinter
Track number: 11
Track name: Da Hui
Tabber: Keith Fusco
Email address: koro_guitarist@hotmail.com
Web page: http://punkrockers.freewebspace.com

There's not too many people keen on the new Offspring album, but I 
personally like it. I think this is one of the best songs on the 
album too. Please email your comments and any corrections, or if
you think any of the lyrics are wrong. Or if you want to request a 
tab email me and I'll try my best to tab it and email it to you as 
soon as possible.

Legend:

p - Pull off
x - Mute
* - Let ring
\ - Slide down neck
/ - Slide up neck
t - Tremolo picking
pm - Palm muted

Standard tuning (E,A,D,G,B,E)

Intro / Verse:

E |---------------------------------------------|
B |---------------------------------------------|
G |---------9-9--------------------9-9----------|
D |-6-4-6-6-9-9-9-9-11-9-6-6-4-6-6-9-9-9-9-11-9-|
A |-6-4-6-6-7-7-9-9-11-9-6-6-4-6-6-7-7-9-9-11-9-|
E |-4-2-4-4-----7-7--9-7-4-4-2-4-4-----7-7--9-7-|

E |--------------------------------------|
B |--------------------------------------|
G |-----------9-9------------------------|
D |-6-6-4-6-6-9-9-9-9-11-9-6-6-4-6-6--6p-|
A |-6-6-4-6-6-7-7-9-9-11-9-6-6-4-6-6--6p-|
E |-4-4-2-4-4-----7-7--9-7-4-4-2-4-4--4p-|

E |-----------------------------------------------|
B |-----------------------------------------------|
G |-----------9-9--------------------9-9----------|
D |-4-6-4-6-6-9-9-9-9-11-9-6-6-4-6-6-9-9-9-9-11-9-|
A |-4-6-4-6-6-7-7-9-9-11-9-6-6-4-6-6-7-7-9-9-11-9-|
E |-4-4-2-4-4-----7-7--9-7-4-4-2-4-4-----7-7--9-7-|

E |--------------------------------------|
B |--------------------------------------|
G |-----------9-9------------------------|
D |-6-6-4-6-6-9-9-9-9-11-9-6-6-4-6-6--6p-|
A |-6-6-4-6-6-7-7-9-9-11-9-6-6-4-6-6--6p-|
E |-4-4-2-4-4-----7-7--9-7-4-4-2-4-4--4p-|

Chorus:

E |---------------------------------------------------------|
B |---------------------------------------------------------|
G |-9-9-9-----------------------9-9-9-----------------------|
D |-9-9-9-4-4-4-6-6-6-6-6-6-6-6-9-9-9-4-4-4-6-6-6-6-6-6-6-6-|
A |-7-7-7-4-4-4-6-6-6-6-6-6-6-6-7-7-7-4-4-4-6-6-6-6-6-6-6-6-|
E |-------2-2-2-4-4-4-4-4-4-4-4-------2-2-2-4-4-4-4-4-4-4-4-|

E |--------------------------------------------|
B |--------------------------------------------|
G |-9-9-9-----------------------9-9-9----------|
D |-9-9-9-4-4-4-6-6-6-6-6-6-6-6-9-9-9-4-4-4-6p-|
A |-7-7-7-4-4-4-6-6-6-6-6-6-6-6-7-7-7-4-4-4-6p-|
E |-------2-2-2-4-4-4-4-4-4-4-4-------2-2-2-4p-|

Verse:

E |---------------------------------------------|
B |---------------------------------------------|
G |---------9-9--------------------9-9----------|
D |-6-4-6-6-9-9-9-9-11-9-6-6-4-6-6-9-9-9-9-11-9-|
A |-6-4-6-6-7-7-9-9-11-9-6-6-4-6-6-7-7-9-9-11-9-|
E |-4-2-4-4-----7-7--9-7-4-4-2-4-4-----7-7--9-7-|

E |--------------------------------------|
B |--------------------------------------|
G |-----------9-9------------------------|
D |-6-6-4-6-6-9-9-9-9-11-9-6-6-4-6-6--6p-|
A |-6-6-4-6-6-7-7-9-9-11-9-6-6-4-6-6--6p-|
E |-4-4-2-4-4-----7-7--9-7-4-4-2-4-4--4p-|

Chorus:

E |---------------------------------------------------------|
B |---------------------------------------------------------|
G |-9-9-9-----------------------9-9-9-----------------------|
D |-9-9-9-4-4-4-6-6-6-6-6-6-6-6-9-9-9-4-4-4-6-6-6-6-6-6-6-6-|
A |-7-7-7-4-4-4-6-6-6-6-6-6-6-6-7-7-7-4-4-4-6-6-6-6-6-6-6-6-|
E |-------2-2-2-4-4-4-4-4-4-4-4-------2-2-2-4-4-4-4-4-4-4-4-|
[ Tab from: http://www.guitartabs.cc/tabs/o/offspring/da_hui_tab_ver_4.html ]
E |--------------------------------------------|
B |--------------------------------------------|
G |-9-9-9-----------------------9-9-9----------|
D |-9-9-9-4-4-4-6-6-6-6-6-6-6-6-9-9-9-4-4-4-6p-|
A |-7-7-7-4-4-4-6-6-6-6-6-6-6-6-7-7-7-4-4-4-6p-|
E |-------2-2-2-4-4-4-4-4-4-4-4-------2-2-2-4p-|

Solo:

E |------------------------------------|
B |------------------------------------|
G |-8-8-8-8-8-8-8-8--9-9-9-9--6-6--9-9-|
D |------------------------------------|
A |------------------------------------|
E |------------------------------------|

E |------------------------------------|
B |------------------9-9-9-9-----------|
G |-8-8-8-8-8-8-8-8-----------6-6--9-9-|
D |------------------------------------|
A |------------------------------------|
E |------------------------------------|

E |------------------------------|
B |------------------------------|
G |-8-8-8-8-8-8-8-8--9-9-9-9-----|
D |------------------------------|
A |------------------------------|
E |--------------------------4-5-|

E |-----------------------------|
B |-----------------------------|
G |-----------------------------|
D |-----------------------------|
A |-3-3--4-4--6--4-4--3--4------|
E |------------------------5-4^-|
   |------------t--------------|

Chorus:

E |---------------------------------------------------------|
B |---------------------------------------------------------|
G |-9-9-9-----------------------9-9-9-----------------------|
D |-9-9-9-4-4-4-6-6-6-6-6-6-6-6-9-9-9-4-4-4-6-6-6-6-6-6-6-6-|
A |-7-7-7-4-4-4-6-6-6-6-6-6-6-6-7-7-7-4-4-4-6-6-6-6-6-6-6-6-|
E |-------2-2-2-4-4-4-4-4-4-4-4-------2-2-2-4-4-4-4-4-4-4-4-|

E |--------------------------------------------------------|
B |--------------------------------------------------------|
G |-9-9-9-----------------------9-9-9----------------------|
D |-9-9-9-4-4-4-6-6-6-6-6-6-6-6-9-9-9-4-4-4-6p-6p-6p-6p-6p-|
A |-7-7-7-4-4-4-6-6-6-6-6-6-6-6-7-7-7-4-4-4-6p-6p-6p-6p-6p-|
E |-------2-2-2-4-4-4-4-4-4-4-4-------2-2-2-4p-4p-4p-4p-4p-|

Bridge:

E |------------------------------|
B |------------------------------|
G |------------------------------|
D |-6-6p--6-6-6p--6p--6p--6p--6p-|
A |-6-6p--6-6-6p--6p--6p--6p--6p-|
E |-4-4p--4-4-4p--4p--4p--4p--4p-|

Outro:

E |-----------------------------------------|
B |-----------------------------------------|
G |-----------9-9---------------------------|
D |-6-6-4-6-6-9-9-9-9-11-9-6-6-6-6-6-4-7-6p-|
A |-6-6-4-6-6-7-7-9-9-11-9-6-6-6-6-6-4-7-6p-|
E |-4-4-2-4-4-----7-7--9-7-4-4-4-4-4-2-5-4p-|
                          |----pm---|

Lyrics:

I won't fuck with Da Hui. I won't fuck with Da Hui. I won't fuck 
with Da Hui. Because Da Hui will fuck with me.

I won't take off on Da Hui. I won't take off on Da Hui. I won't 
take off on Da Hui. Because Da Hui will fuck with me.

Haole with a heart, that's all I'll ever be. I'm not a part of the
north shore society. Stuck on the shoulder, that's where you'll 
find me, digging for scraps with the kooks in line.

I won't park next to Da Hui. I won't park next to Da Hui. I won't 
park next to Da Hui. Because I don't really feel comfortable.

Haole with a heart, that's all I'll ever be. I'm not a part of the
north shore society. Stuck on the shoulder, I'm not complaining. 
Digging for scraps with the kooks in line.

Haole with a heart, that's all I'll ever be. I'm not a part of the
north shore society. Stuck on the shoulder, that's where you'll 
find me, digging for scraps with the kooks in line.

Don't fuck with Da Hui.
Don't fuck with Da Hui.
Don't fuck with Da Hui.
Because Da Hui will fuck with you!
Comments