Offspring - Da Hui Chords & Tabs

 

Da Hui Chords & Tabs

Offspring Chords & Tabs

Version: 3 Type: Tab 0 ratings
1 star 2 stars 3 stars 4 stars 5 stars
comments

Da Hui Tab

Artist: The Offspring
Song: Da Hui
Album: Splinter (2003), yet to be released (hehe)
Tuning: Standard

Intro & Verse: (Bass for first 8 bars plays root notes)
E|-------------------------------------------------------------------
B|-------------------------------------------------------------------
G|-----------------------9--9----6--4--4--6--4-----------------------
D|-6--6----4--6--6----4--9--9----6--4--4--6--4-----------------------
A|-6--6----4--6--6----4--7--7----4--2--2--4--2-----------------------
E|-4--4----2--4--4----2----------------------------------------------

Ending on Verses:
E|-------------------------------------------------------------------
B|-------------------------------------------------------------------
G|-------------------------------------------------------------------
D|-6--6----4--6--6----4--6-------------------------------------------
A|-6--6----4--6--6----4--6-------------------------------------------
E|-4--4----2--4--4----2--4-------------------------------------------

Chorus:
E|-------------------------------------------------------------------
B|-------------------------------------------------------------------
G|-9--9----9---------------------------------------------------------
D|-9--9----9--4--4----4--6--6----6--6--6-----------------------------
A|-7--7----7--4--4----4--6--6----6--6--6-----------------------------
E|------------2--2----2--4--4----4--4--4-----------------------------
[ Tab from: http://www.guitartabs.cc/tabs/o/offspring/da_hui_tab_ver_3.html ]
Solo: (that is, if you could class this as a solo)
E|-------------------------------------------------------------------
B|-------------------------------------------------9-9-9-9-----------
G|-8-8-8-8-8-8-8-8-9-9-9-9-6-6-9-9-8-8-8-8-8-8-8-8---------6-6-9-9---
D|-------------------------------------------------------------------
A|-------------------------------------------------------------------
E|-------------------------------------------------------------------

E|-------------------------------------------------------------------
B|-------------------------------------------------------------------
G|-8-8-8-8-8-8-8-8-9-9-9-9-6-6-9-9-----------------------------------
D|-------------------------------------------------------------------
A|-------------------------------------------------------------------
E|-------------------------------------------------------------------

Cool Eqyptian bit after the solo:
E|-------------------------------------------------------------------
B|-------------------------------------------------------------------
G|-------------------------------------------------------------------
D|-------------------------------------------------------------------
A|--------------4-6h7p6-4h6p4-2h4p2----------------------------------
E|-2h4-4-4-5--5---------------------4--------------------------------

There you go, easy as shit. Good to know that the Offspring still even this song
is a bit corny. Tabbed by noodles_wazaman (wazman87@hotmail.com) 30/9/2003
Comments