Offspring - Da Hui Chords & Tabs

 

Da Hui Chords & Tabs

Offspring Chords & Tabs

Version: 3 Type: Bass Tab 0 ratings
1 star 2 stars 3 stars 4 stars 5 stars
comments

Da Hui Bass Tab

intro,verses and under the solo

G|-------------------------------------------------|
D|------------------2-2-2-2------------------------|
A|--------------------------2-2-4-2----------------|
E|--4-4-4-2-4-4-4-4--------------------------------|

chorus

G|-------------------------------------------------|
D|--2-2-2-2----------------------------------------|
A|-------------------------------------------------|
E|----------2-2-2-2-4-4-4-4-4-4-4-4----------------|
[ Tab from: http://www.guitartabs.cc/tabs/o/offspring/da_hui_btab_ver_3.html ]
under gang vocals

G|-------------------------------------------------|
D|-------------------------------------------------|
A|-------------------------------------------------|
E|--2-4-r-r-4-4-r-r-2-4-r-4-r-4--------------------|


Outro

G|-------------------------------------------------|
D|-------------------------------------------------|
A|-------------------------------------------------|
E|--4-4-4-4-4-2-5---4------------------------------|

note, r= 1 beat rest
Comments