Offspring - D U I Chords & Tabs

 

D U I Chords & Tabs

Offspring Chords & Tabs

Version: 1 Type: Tab 0 ratings
1 star 2 stars 3 stars 4 stars 5 stars
comments

D U I Tab

this was a song on the "Gone Away" single. also when i downloaded it,
it also said Pennywise was envolved. anyway who cares? its a good song and it
tabbed. doesn't sound very offspringy does it?

x - scratch
/ \ - slide
p - pull off
h - hammer on


intro

|---------------------------------|
|---------------------------------|
|---------7-7-x-x-9-9-x-x---------|
|-9-9-x-x-7-7-x-x-9-9-x-x-7-7-7/8-|
|-9-9-x-x-5-5-x-x-7-7-x-x-7-7-7/8-|
|-7-7-x-x-----------------5-5-5/6-|

riff

|-----------------10p7----7--------6/7--7-7-7-7-7----------------|
|-/7--/7--/7--/7-------10----10p7--6/7--7-7-7-7-7--5h7-5---------|
|--------------------------------------------------------7---\4--|
|---------------------------------------------------------/7-----|
|----------------------------------------------------------------|
|----------------------------------------------------------------|

verse

|---------------------------------|
|---------------------------------|
|---------x-x-7-x-x-x-9-x---------|
|-x-x-9-x-x-x-7-x-x-x-9-x-x-x-7/8-|
|-x-x-9-x-5-5-5-x-7-7-7-x-x-x-7/8-|
|-7-7-7-x-----------------5-5-5/6-|

chorus  

|---------------------------------------------------------------------
|---------------------------------------------------------------------
|-------------7-7-7-----------------------7-7-7-----------------------
|-9--9--5--5--7-7-7--7--7-7/8/9--9--5--5--7-7-7--7--7-7/8/9--9--5--5--
|-9--9--5--5--5-5-5--7--7-7/8/9--9--5--5--5-5-5--7--7-7/8/9--9--5--5--
|-7--7--3--3---------5--5-5/6/7--7--3--3---------5--5-5/6/7--7--3--3--

 ---------------------------------|
 ---------------------------------|
 -7-7-7-----------------------7X--|
 -7-7-7--7--7-7/8/9--9--5--5--7X--|
 -5-5-5--7--7-7/8/9--9--5--5--5X--|
 --------5--5-5/6/7--7--3--3------|

riff 2
[ Tab from: http://www.guitartabs.cc/tabs/o/offspring/d_u_i_tab.html ]
|------------------------------|
|------------------------------|
|-------7--7--9--9-9-----------|
|-9--9--7--7--9--9-9-7--7-7/8/-|
|-9--9--5--5--7--7-7-7--7-7/8/-|
|-7--7---------------5--5-5/6/-|

riff 3

|-12-12-5-5-5/6/7-7-7-6/7-7-7-6/7-7----7-10----------------------------11:-|
|-12-12-5-5-5/6/7-7-7-6/7-7-7-6/7---10-------10--/7--7-7-7-7-7-7-------12:-|
|----------------------------------------------------------------7---4-----|
|------------------------------------------------------------------7-------|
|--------------------------------------------------------------------------|
|--------------------------------------------------------------------------|

chorus 2

|-----------------------------------------------------------------------
|-----------------------------------------------------------------------
|-4--4--4-4-4-7--7-7--7--7-7------------------------------4--4--4-4-4-4-
|-4--4--4-4-4-7--7-7--7--7-7--5--5--5-5-5-7--7-7--7--7-7--4--4--4-4-4-4-
|-2--2--2-2-2-5--5-5--5--5-5--5--5--5-5-5-7--7-7--7--7-7--2--2--2-2-2-2-
|-----------------------------3--3--3-3-3-5--5-5--5--5-5----------------

 ---------------------------------|
 ---------------------------------|
 -7--7-7--7--7-7--11-11-11-11--11-|
 -7--7-7--7--7-7--11-11-11-11--11-|
 -5--5-5--5--5-5---9--9--9--9---9-|
 ---------------------------------|

solo 3

|-10-------------------10-----------------10---------------------------------
|----12p10-12--12--12-----12p10-12--12-12----12p10-12------------------------
|-----------------------------------------------------/11--11-11-11-11-11-11-
|----------------------------------------------------------------------------
|----------------------------------------------------------------------------
|----------------------------------------------------------------------------

|------------------------------------10-10-10-10-10-10-10-10-|
|------------------------------------10-10-10-10-10-10-10-10-|
|------------------7-9--/11-p9---7---------------------------|
|-\9p7-7h9-9---7-9-------------9-----------------------------|
|------------9-----------------------------------------------|

E-mail = bobby544@mail2rob.com
Comments